ISO-10303-21;
HEADER;
/* Generated by software containing ST-Developer
 * from STEP Tools, Inc. (www.steptools.com) 
 */

FILE_DESCRIPTION(
/* description */ ('STEP AP203'),
/* implementation_level */ '2;1');

FILE_NAME(
/* name */ 'Q:\\Catalogo\\SitoWeb\\correzioni\\DSQAL0000005.stp',
/* time_stamp */ '2025-02-10T10:58:56+01:00',
/* author */ ('tecnico5'),
/* organization */ (''),
/* preprocessor_version */ 'ST-DEVELOPER v20',
/* originating_system */ 'Autodesk Inventor 2022',
/* authorisation */ '');

FILE_SCHEMA (('AUTOMOTIVE_DESIGN { 1 0 10303 214 3 1 1 }'));
ENDSEC;

DATA;
#10=MECHANICAL_DESIGN_GEOMETRIC_PRESENTATION_REPRESENTATION('',(#13),#634);
#11=SHAPE_REPRESENTATION_RELATIONSHIP('SRR','None',#641,#12);
#12=ADVANCED_BREP_SHAPE_REPRESENTATION('',(#14),#633);
#13=STYLED_ITEM('',(#650),#14);
#14=MANIFOLD_SOLID_BREP('Solido1',#377);
#15=CYLINDRICAL_SURFACE('',#420,4.35);
#16=CYLINDRICAL_SURFACE('',#422,4.35);
#17=CYLINDRICAL_SURFACE('',#424,4.35);
#18=CYLINDRICAL_SURFACE('',#426,4.35);
#19=FACE_BOUND('',#54,.T.);
#20=FACE_BOUND('',#56,.T.);
#21=FACE_BOUND('',#64,.T.);
#22=FACE_BOUND('',#66,.T.);
#23=CIRCLE('',#403,4.35);
#24=CIRCLE('',#404,4.35);
#25=CIRCLE('',#406,4.35);
#26=CIRCLE('',#407,4.35);
#27=CIRCLE('',#415,4.35);
#28=CIRCLE('',#416,4.35);
#29=CIRCLE('',#418,4.35);
#30=CIRCLE('',#419,4.35);
#31=FACE_OUTER_BOUND('',#51,.T.);
#32=FACE_OUTER_BOUND('',#52,.T.);
#33=FACE_OUTER_BOUND('',#53,.T.);
#34=FACE_OUTER_BOUND('',#55,.T.);
#35=FACE_OUTER_BOUND('',#57,.T.);
#36=FACE_OUTER_BOUND('',#58,.T.);
#37=FACE_OUTER_BOUND('',#59,.T.);
#38=FACE_OUTER_BOUND('',#60,.T.);
#39=FACE_OUTER_BOUND('',#61,.T.);
#40=FACE_OUTER_BOUND('',#62,.T.);
#41=FACE_OUTER_BOUND('',#63,.T.);
#42=FACE_OUTER_BOUND('',#65,.T.);
#43=FACE_OUTER_BOUND('',#67,.T.);
#44=FACE_OUTER_BOUND('',#68,.T.);
#45=FACE_OUTER_BOUND('',#69,.T.);
#46=FACE_OUTER_BOUND('',#70,.T.);
#47=FACE_OUTER_BOUND('',#71,.T.);
#48=FACE_OUTER_BOUND('',#72,.T.);
#49=FACE_OUTER_BOUND('',#73,.T.);
#50=FACE_OUTER_BOUND('',#74,.T.);
#51=EDGE_LOOP('',(#241,#242,#243,#244));
#52=EDGE_LOOP('',(#245,#246,#247,#248,#249,#250));
#53=EDGE_LOOP('',(#251,#252,#253,#254));
#54=EDGE_LOOP('',(#255,#256,#257,#258));
#55=EDGE_LOOP('',(#259,#260,#261,#262));
#56=EDGE_LOOP('',(#263,#264,#265,#266));
#57=EDGE_LOOP('',(#267,#268,#269,#270,#271,#272));
#58=EDGE_LOOP('',(#273,#274,#275,#276));
#59=EDGE_LOOP('',(#277,#278,#279,#280,#281));
#60=EDGE_LOOP('',(#282,#283,#284,#285,#286));
#61=EDGE_LOOP('',(#287,#288,#289));
#62=EDGE_LOOP('',(#290,#291,#292));
#63=EDGE_LOOP('',(#293,#294,#295,#296));
#64=EDGE_LOOP('',(#297,#298,#299,#300));
#65=EDGE_LOOP('',(#301,#302,#303,#304));
#66=EDGE_LOOP('',(#305,#306,#307,#308));
#67=EDGE_LOOP('',(#309,#310,#311,#312));
#68=EDGE_LOOP('',(#313,#314,#315,#316));
#69=EDGE_LOOP('',(#317,#318,#319,#320));
#70=EDGE_LOOP('',(#321,#322,#323,#324));
#71=EDGE_LOOP('',(#325,#326,#327,#328));
#72=EDGE_LOOP('',(#329,#330,#331,#332));
#73=EDGE_LOOP('',(#333,#334,#335,#336));
#74=EDGE_LOOP('',(#337,#338,#339,#340));
#75=LINE('',#532,#117);
#76=LINE('',#534,#118);
#77=LINE('',#536,#119);
#78=LINE('',#537,#120);
#79=LINE('',#540,#121);
#80=LINE('',#542,#122);
#81=LINE('',#544,#123);
#82=LINE('',#546,#124);
#83=LINE('',#547,#125);
#84=LINE('',#550,#126);
#85=LINE('',#552,#127);
#86=LINE('',#553,#128);
#87=LINE('',#556,#129);
#88=LINE('',#560,#130);
#89=LINE('',#564,#131);
#90=LINE('',#566,#132);
#91=LINE('',#567,#133);
#92=LINE('',#570,#134);
#93=LINE('',#574,#135);
#94=LINE('',#577,#136);
#95=LINE('',#579,#137);
#96=LINE('',#581,#138);
#97=LINE('',#582,#139);
#98=LINE('',#584,#140);
#99=LINE('',#585,#141);
#100=LINE('',#590,#142);
#101=LINE('',#591,#143);
#102=LINE('',#594,#144);
#103=LINE('',#595,#145);
#104=LINE('',#597,#146);
#105=LINE('',#602,#147);
#106=LINE('',#605,#148);
#107=LINE('',#609,#149);
#108=LINE('',#613,#150);
#109=LINE('',#616,#151);
#110=LINE('',#617,#152);
#111=LINE('',#619,#153);
#112=LINE('',#621,#154);
#113=LINE('',#624,#155);
#114=LINE('',#625,#156);
#115=LINE('',#627,#157);
#116=LINE('',#629,#158);
#117=VECTOR('',#432,1000.);
#118=VECTOR('',#433,1000.);
#119=VECTOR('',#434,1000.);
#120=VECTOR('',#435,1000.);
#121=VECTOR('',#438,1000.);
#122=VECTOR('',#439,1000.);
#123=VECTOR('',#440,1000.);
#124=VECTOR('',#441,1000.);
#125=VECTOR('',#442,1000.);
#126=VECTOR('',#445,1000.);
#127=VECTOR('',#446,1000.);
#128=VECTOR('',#447,1000.);
#129=VECTOR('',#448,1000.);
#130=VECTOR('',#451,1000.);
#131=VECTOR('',#456,1000.);
#132=VECTOR('',#457,1000.);
#133=VECTOR('',#458,1000.);
#134=VECTOR('',#459,1000.);
#135=VECTOR('',#462,1000.);
#136=VECTOR('',#467,1000.);
#137=VECTOR('',#468,1000.);
#138=VECTOR('',#469,1000.);
#139=VECTOR('',#470,1000.);
#140=VECTOR('',#473,1000.);
#141=VECTOR('',#474,1000.);
#142=VECTOR('',#481,1000.);
#143=VECTOR('',#482,1000.);
#144=VECTOR('',#485,1000.);
#145=VECTOR('',#486,1000.);
#146=VECTOR('',#489,1000.);
#147=VECTOR('',#492,1000.);
#148=VECTOR('',#495,1000.);
#149=VECTOR('',#498,1000.);
#150=VECTOR('',#501,1000.);
#151=VECTOR('',#506,1000.);
#152=VECTOR('',#507,1000.);
#153=VECTOR('',#510,1000.);
#154=VECTOR('',#513,1000.);
#155=VECTOR('',#518,1000.);
#156=VECTOR('',#519,1000.);
#157=VECTOR('',#522,1000.);
#158=VECTOR('',#525,1000.);
#159=VERTEX_POINT('',#530);
#160=VERTEX_POINT('',#531);
#161=VERTEX_POINT('',#533);
#162=VERTEX_POINT('',#535);
#163=VERTEX_POINT('',#539);
#164=VERTEX_POINT('',#541);
#165=VERTEX_POINT('',#543);
#166=VERTEX_POINT('',#545);
#167=VERTEX_POINT('',#549);
#168=VERTEX_POINT('',#551);
#169=VERTEX_POINT('',#554);
#170=VERTEX_POINT('',#555);
#171=VERTEX_POINT('',#557);
#172=VERTEX_POINT('',#559);
#173=VERTEX_POINT('',#563);
#174=VERTEX_POINT('',#565);
#175=VERTEX_POINT('',#568);
#176=VERTEX_POINT('',#569);
#177=VERTEX_POINT('',#571);
#178=VERTEX_POINT('',#573);
#179=VERTEX_POINT('',#578);
#180=VERTEX_POINT('',#580);
#181=VERTEX_POINT('',#589);
#182=VERTEX_POINT('',#593);
#183=VERTEX_POINT('',#598);
#184=VERTEX_POINT('',#599);
#185=VERTEX_POINT('',#601);
#186=VERTEX_POINT('',#603);
#187=VERTEX_POINT('',#607);
#188=VERTEX_POINT('',#608);
#189=VERTEX_POINT('',#610);
#190=VERTEX_POINT('',#612);
#191=EDGE_CURVE('',#159,#160,#75,.T.);
#192=EDGE_CURVE('',#159,#161,#76,.T.);
#193=EDGE_CURVE('',#161,#162,#77,.T.);
#194=EDGE_CURVE('',#162,#160,#78,.T.);
#195=EDGE_CURVE('',#160,#163,#79,.T.);
#196=EDGE_CURVE('',#164,#163,#80,.T.);
#197=EDGE_CURVE('',#165,#164,#81,.T.);
#198=EDGE_CURVE('',#165,#166,#82,.T.);
#199=EDGE_CURVE('',#159,#166,#83,.T.);
#200=EDGE_CURVE('',#163,#167,#84,.T.);
#201=EDGE_CURVE('',#168,#167,#85,.T.);
#202=EDGE_CURVE('',#164,#168,#86,.T.);
#203=EDGE_CURVE('',#169,#170,#87,.T.);
#204=EDGE_CURVE('',#170,#171,#23,.T.);
#205=EDGE_CURVE('',#171,#172,#88,.T.);
#206=EDGE_CURVE('',#172,#169,#24,.T.);
#207=EDGE_CURVE('',#167,#173,#89,.T.);
#208=EDGE_CURVE('',#174,#173,#90,.T.);
#209=EDGE_CURVE('',#168,#174,#91,.T.);
#210=EDGE_CURVE('',#175,#176,#92,.T.);
#211=EDGE_CURVE('',#176,#177,#25,.T.);
#212=EDGE_CURVE('',#177,#178,#93,.T.);
#213=EDGE_CURVE('',#178,#175,#26,.T.);
#214=EDGE_CURVE('',#173,#162,#94,.T.);
#215=EDGE_CURVE('',#179,#161,#95,.T.);
#216=EDGE_CURVE('',#180,#179,#96,.T.);
#217=EDGE_CURVE('',#174,#180,#97,.T.);
#218=EDGE_CURVE('',#179,#166,#98,.T.);
#219=EDGE_CURVE('',#180,#165,#99,.T.);
#220=EDGE_CURVE('',#181,#159,#100,.T.);
#221=EDGE_CURVE('',#161,#181,#101,.T.);
#222=EDGE_CURVE('',#182,#179,#102,.T.);
#223=EDGE_CURVE('',#182,#166,#103,.T.);
#224=EDGE_CURVE('',#181,#182,#104,.T.);
#225=EDGE_CURVE('',#183,#184,#27,.T.);
#226=EDGE_CURVE('',#185,#183,#105,.T.);
#227=EDGE_CURVE('',#186,#185,#28,.T.);
#228=EDGE_CURVE('',#184,#186,#106,.T.);
#229=EDGE_CURVE('',#187,#188,#107,.T.);
#230=EDGE_CURVE('',#189,#187,#29,.T.);
#231=EDGE_CURVE('',#190,#189,#108,.T.);
#232=EDGE_CURVE('',#188,#190,#30,.T.);
#233=EDGE_CURVE('',#170,#189,#109,.T.);
#234=EDGE_CURVE('',#171,#187,#110,.T.);
#235=EDGE_CURVE('',#169,#190,#111,.T.);
#236=EDGE_CURVE('',#172,#188,#112,.T.);
#237=EDGE_CURVE('',#176,#183,#113,.T.);
#238=EDGE_CURVE('',#177,#184,#114,.T.);
#239=EDGE_CURVE('',#175,#185,#115,.T.);
#240=EDGE_CURVE('',#178,#186,#116,.T.);
#241=ORIENTED_EDGE('',*,*,#191,.F.);
#242=ORIENTED_EDGE('',*,*,#192,.T.);
#243=ORIENTED_EDGE('',*,*,#193,.T.);
#244=ORIENTED_EDGE('',*,*,#194,.T.);
#245=ORIENTED_EDGE('',*,*,#195,.T.);
#246=ORIENTED_EDGE('',*,*,#196,.F.);
#247=ORIENTED_EDGE('',*,*,#197,.F.);
#248=ORIENTED_EDGE('',*,*,#198,.T.);
#249=ORIENTED_EDGE('',*,*,#199,.F.);
#250=ORIENTED_EDGE('',*,*,#191,.T.);
#251=ORIENTED_EDGE('',*,*,#200,.T.);
#252=ORIENTED_EDGE('',*,*,#201,.F.);
#253=ORIENTED_EDGE('',*,*,#202,.F.);
#254=ORIENTED_EDGE('',*,*,#196,.T.);
#255=ORIENTED_EDGE('',*,*,#203,.T.);
#256=ORIENTED_EDGE('',*,*,#204,.T.);
#257=ORIENTED_EDGE('',*,*,#205,.T.);
#258=ORIENTED_EDGE('',*,*,#206,.T.);
#259=ORIENTED_EDGE('',*,*,#207,.T.);
#260=ORIENTED_EDGE('',*,*,#208,.F.);
#261=ORIENTED_EDGE('',*,*,#209,.F.);
#262=ORIENTED_EDGE('',*,*,#201,.T.);
#263=ORIENTED_EDGE('',*,*,#210,.T.);
#264=ORIENTED_EDGE('',*,*,#211,.T.);
#265=ORIENTED_EDGE('',*,*,#212,.T.);
#266=ORIENTED_EDGE('',*,*,#213,.T.);
#267=ORIENTED_EDGE('',*,*,#214,.T.);
#268=ORIENTED_EDGE('',*,*,#193,.F.);
#269=ORIENTED_EDGE('',*,*,#215,.F.);
#270=ORIENTED_EDGE('',*,*,#216,.F.);
#271=ORIENTED_EDGE('',*,*,#217,.F.);
#272=ORIENTED_EDGE('',*,*,#208,.T.);
#273=ORIENTED_EDGE('',*,*,#216,.T.);
#274=ORIENTED_EDGE('',*,*,#218,.T.);
#275=ORIENTED_EDGE('',*,*,#198,.F.);
#276=ORIENTED_EDGE('',*,*,#219,.F.);
#277=ORIENTED_EDGE('',*,*,#197,.T.);
#278=ORIENTED_EDGE('',*,*,#202,.T.);
#279=ORIENTED_EDGE('',*,*,#209,.T.);
#280=ORIENTED_EDGE('',*,*,#217,.T.);
#281=ORIENTED_EDGE('',*,*,#219,.T.);
#282=ORIENTED_EDGE('',*,*,#195,.F.);
#283=ORIENTED_EDGE('',*,*,#194,.F.);
#284=ORIENTED_EDGE('',*,*,#214,.F.);
#285=ORIENTED_EDGE('',*,*,#207,.F.);
#286=ORIENTED_EDGE('',*,*,#200,.F.);
#287=ORIENTED_EDGE('',*,*,#220,.F.);
#288=ORIENTED_EDGE('',*,*,#221,.F.);
#289=ORIENTED_EDGE('',*,*,#192,.F.);
#290=ORIENTED_EDGE('',*,*,#222,.F.);
#291=ORIENTED_EDGE('',*,*,#223,.T.);
#292=ORIENTED_EDGE('',*,*,#218,.F.);
#293=ORIENTED_EDGE('',*,*,#215,.T.);
#294=ORIENTED_EDGE('',*,*,#221,.T.);
#295=ORIENTED_EDGE('',*,*,#224,.T.);
#296=ORIENTED_EDGE('',*,*,#222,.T.);
#297=ORIENTED_EDGE('',*,*,#225,.F.);
#298=ORIENTED_EDGE('',*,*,#226,.F.);
#299=ORIENTED_EDGE('',*,*,#227,.F.);
#300=ORIENTED_EDGE('',*,*,#228,.F.);
#301=ORIENTED_EDGE('',*,*,#199,.T.);
#302=ORIENTED_EDGE('',*,*,#223,.F.);
#303=ORIENTED_EDGE('',*,*,#224,.F.);
#304=ORIENTED_EDGE('',*,*,#220,.T.);
#305=ORIENTED_EDGE('',*,*,#229,.F.);
#306=ORIENTED_EDGE('',*,*,#230,.F.);
#307=ORIENTED_EDGE('',*,*,#231,.F.);
#308=ORIENTED_EDGE('',*,*,#232,.F.);
#309=ORIENTED_EDGE('',*,*,#233,.T.);
#310=ORIENTED_EDGE('',*,*,#230,.T.);
#311=ORIENTED_EDGE('',*,*,#234,.F.);
#312=ORIENTED_EDGE('',*,*,#204,.F.);
#313=ORIENTED_EDGE('',*,*,#235,.T.);
#314=ORIENTED_EDGE('',*,*,#231,.T.);
#315=ORIENTED_EDGE('',*,*,#233,.F.);
#316=ORIENTED_EDGE('',*,*,#203,.F.);
#317=ORIENTED_EDGE('',*,*,#236,.T.);
#318=ORIENTED_EDGE('',*,*,#232,.T.);
#319=ORIENTED_EDGE('',*,*,#235,.F.);
#320=ORIENTED_EDGE('',*,*,#206,.F.);
#321=ORIENTED_EDGE('',*,*,#234,.T.);
#322=ORIENTED_EDGE('',*,*,#229,.T.);
#323=ORIENTED_EDGE('',*,*,#236,.F.);
#324=ORIENTED_EDGE('',*,*,#205,.F.);
#325=ORIENTED_EDGE('',*,*,#237,.T.);
#326=ORIENTED_EDGE('',*,*,#225,.T.);
#327=ORIENTED_EDGE('',*,*,#238,.F.);
#328=ORIENTED_EDGE('',*,*,#211,.F.);
#329=ORIENTED_EDGE('',*,*,#239,.T.);
#330=ORIENTED_EDGE('',*,*,#226,.T.);
#331=ORIENTED_EDGE('',*,*,#237,.F.);
#332=ORIENTED_EDGE('',*,*,#210,.F.);
#333=ORIENTED_EDGE('',*,*,#240,.T.);
#334=ORIENTED_EDGE('',*,*,#227,.T.);
#335=ORIENTED_EDGE('',*,*,#239,.F.);
#336=ORIENTED_EDGE('',*,*,#213,.F.);
#337=ORIENTED_EDGE('',*,*,#238,.T.);
#338=ORIENTED_EDGE('',*,*,#228,.T.);
#339=ORIENTED_EDGE('',*,*,#240,.F.);
#340=ORIENTED_EDGE('',*,*,#212,.F.);
#341=PLANE('',#400);
#342=PLANE('',#401);
#343=PLANE('',#402);
#344=PLANE('',#405);
#345=PLANE('',#408);
#346=PLANE('',#409);
#347=PLANE('',#410);
#348=PLANE('',#411);
#349=PLANE('',#412);
#350=PLANE('',#413);
#351=PLANE('',#414);
#352=PLANE('',#417);
#353=PLANE('',#421);
#354=PLANE('',#423);
#355=PLANE('',#425);
#356=PLANE('',#427);
#357=ADVANCED_FACE('',(#31),#341,.F.);
#358=ADVANCED_FACE('',(#32),#342,.F.);
#359=ADVANCED_FACE('',(#33,#19),#343,.F.);
#360=ADVANCED_FACE('',(#34,#20),#344,.F.);
#361=ADVANCED_FACE('',(#35),#345,.F.);
#362=ADVANCED_FACE('',(#36),#346,.F.);
#363=ADVANCED_FACE('',(#37),#347,.T.);
#364=ADVANCED_FACE('',(#38),#348,.F.);
#365=ADVANCED_FACE('',(#39),#349,.F.);
#366=ADVANCED_FACE('',(#40),#350,.F.);
#367=ADVANCED_FACE('',(#41,#21),#351,.T.);
#368=ADVANCED_FACE('',(#42,#22),#352,.F.);
#369=ADVANCED_FACE('',(#43),#15,.F.);
#370=ADVANCED_FACE('',(#44),#353,.F.);
#371=ADVANCED_FACE('',(#45),#16,.F.);
#372=ADVANCED_FACE('',(#46),#354,.F.);
#373=ADVANCED_FACE('',(#47),#17,.F.);
#374=ADVANCED_FACE('',(#48),#355,.F.);
#375=ADVANCED_FACE('',(#49),#18,.F.);
#376=ADVANCED_FACE('',(#50),#356,.F.);
#377=CLOSED_SHELL('',(#357,#358,#359,#360,#361,#362,#363,#364,#365,#366,
#367,#368,#369,#370,#371,#372,#373,#374,#375,#376));
#378=DERIVED_UNIT_ELEMENT(#381,1.);
#379=DERIVED_UNIT_ELEMENT(#636,-3.);
#380=DIMENSIONAL_EXPONENTS(1.,0.,0.,0.,0.,0.,0.);
#381=(
CONVERSION_BASED_UNIT('gram',#383)
MASS_UNIT()
NAMED_UNIT(#380)
);
#382=(
MASS_UNIT()
NAMED_UNIT(*)
SI_UNIT(.KILO.,.GRAM.)
);
#383=MASS_MEASURE_WITH_UNIT(MASS_MEASURE(0.001),#382);
#384=DERIVED_UNIT((#378,#379));
#385=MEASURE_REPRESENTATION_ITEM('density measure',
POSITIVE_RATIO_MEASURE(1.),#384);
#386=PROPERTY_DEFINITION_REPRESENTATION(#391,#388);
#387=PROPERTY_DEFINITION_REPRESENTATION(#392,#389);
#388=REPRESENTATION('material name',(#390),#633);
#389=REPRESENTATION('density',(#385),#633);
#390=DESCRIPTIVE_REPRESENTATION_ITEM('Generico','Generico');
#391=PROPERTY_DEFINITION('material property','material name',#643);
#392=PROPERTY_DEFINITION('material property','density of part',#643);
#393=DATE_TIME_ROLE('creation_date');
#394=APPLIED_DATE_AND_TIME_ASSIGNMENT(#395,#393,(#643));
#395=DATE_AND_TIME(#396,#397);
#396=CALENDAR_DATE(2024,31,5);
#397=LOCAL_TIME(0,59,46.,#398);
#398=COORDINATED_UNIVERSAL_TIME_OFFSET(0,0,.BEHIND.);
#399=AXIS2_PLACEMENT_3D('placement',#528,#428,#429);
#400=AXIS2_PLACEMENT_3D('',#529,#430,#431);
#401=AXIS2_PLACEMENT_3D('',#538,#436,#437);
#402=AXIS2_PLACEMENT_3D('',#548,#443,#444);
#403=AXIS2_PLACEMENT_3D('',#558,#449,#450);
#404=AXIS2_PLACEMENT_3D('',#561,#452,#453);
#405=AXIS2_PLACEMENT_3D('',#562,#454,#455);
#406=AXIS2_PLACEMENT_3D('',#572,#460,#461);
#407=AXIS2_PLACEMENT_3D('',#575,#463,#464);
#408=AXIS2_PLACEMENT_3D('',#576,#465,#466);
#409=AXIS2_PLACEMENT_3D('',#583,#471,#472);
#410=AXIS2_PLACEMENT_3D('',#586,#475,#476);
#411=AXIS2_PLACEMENT_3D('',#587,#477,#478);
#412=AXIS2_PLACEMENT_3D('',#588,#479,#480);
#413=AXIS2_PLACEMENT_3D('',#592,#483,#484);
#414=AXIS2_PLACEMENT_3D('',#596,#487,#488);
#415=AXIS2_PLACEMENT_3D('',#600,#490,#491);
#416=AXIS2_PLACEMENT_3D('',#604,#493,#494);
#417=AXIS2_PLACEMENT_3D('',#606,#496,#497);
#418=AXIS2_PLACEMENT_3D('',#611,#499,#500);
#419=AXIS2_PLACEMENT_3D('',#614,#502,#503);
#420=AXIS2_PLACEMENT_3D('',#615,#504,#505);
#421=AXIS2_PLACEMENT_3D('',#618,#508,#509);
#422=AXIS2_PLACEMENT_3D('',#620,#511,#512);
#423=AXIS2_PLACEMENT_3D('',#622,#514,#515);
#424=AXIS2_PLACEMENT_3D('',#623,#516,#517);
#425=AXIS2_PLACEMENT_3D('',#626,#520,#521);
#426=AXIS2_PLACEMENT_3D('',#628,#523,#524);
#427=AXIS2_PLACEMENT_3D('',#630,#526,#527);
#428=DIRECTION('axis',(0.,0.,1.));
#429=DIRECTION('refdir',(1.,0.,0.));
#430=DIRECTION('center_axis',(-0.707106781186544,-0.707106781186551,0.));
#431=DIRECTION('ref_axis',(0.707106781186551,-0.707106781186544,0.));
#432=DIRECTION('',(0.,0.,-1.));
#433=DIRECTION('',(0.707106781186551,-0.707106781186544,0.));
#434=DIRECTION('',(0.,0.,-1.));
#435=DIRECTION('',(-0.707106781186551,0.707106781186544,0.));
#436=DIRECTION('center_axis',(0.,-1.,0.));
#437=DIRECTION('ref_axis',(0.,0.,-1.));
#438=DIRECTION('',(-1.,0.,0.));
#439=DIRECTION('',(0.,0.,-1.));
#440=DIRECTION('',(-1.,0.,0.));
#441=DIRECTION('',(0.,0.,-1.));
#442=DIRECTION('',(1.3412810381264E-16,0.,1.));
#443=DIRECTION('center_axis',(1.,0.,0.));
#444=DIRECTION('ref_axis',(0.,0.,-1.));
#445=DIRECTION('',(0.,-1.,0.));
#446=DIRECTION('',(0.,0.,-1.));
#447=DIRECTION('',(0.,-1.,0.));
#448=DIRECTION('',(0.,1.,2.9236912516463E-16));
#449=DIRECTION('center_axis',(1.,0.,0.));
#450=DIRECTION('ref_axis',(0.,0.,-1.));
#451=DIRECTION('',(0.,-1.,9.74563750548767E-17));
#452=DIRECTION('center_axis',(1.,0.,0.));
#453=DIRECTION('ref_axis',(0.,0.,-1.));
#454=DIRECTION('center_axis',(0.,1.,0.));
#455=DIRECTION('ref_axis',(0.,0.,1.));
#456=DIRECTION('',(1.,0.,0.));
#457=DIRECTION('',(0.,0.,-1.));
#458=DIRECTION('',(1.,0.,0.));
#459=DIRECTION('',(-1.,0.,0.));
#460=DIRECTION('center_axis',(0.,1.,0.));
#461=DIRECTION('ref_axis',(0.,0.,1.));
#462=DIRECTION('',(1.,0.,0.));
#463=DIRECTION('center_axis',(0.,1.,0.));
#464=DIRECTION('ref_axis',(0.,0.,1.));
#465=DIRECTION('center_axis',(-1.,0.,0.));
#466=DIRECTION('ref_axis',(0.,0.,1.));
#467=DIRECTION('',(0.,1.,0.));
#468=DIRECTION('',(0.,0.,-1.));
#469=DIRECTION('',(0.,0.,-1.));
#470=DIRECTION('',(0.,1.,0.));
#471=DIRECTION('center_axis',(-0.707106781186544,-0.707106781186551,0.));
#472=DIRECTION('ref_axis',(0.707106781186551,-0.707106781186544,0.));
#473=DIRECTION('',(-0.707106781186551,0.707106781186544,0.));
#474=DIRECTION('',(-0.707106781186551,0.707106781186544,0.));
#475=DIRECTION('center_axis',(0.,0.,1.));
#476=DIRECTION('ref_axis',(1.,0.,0.));
#477=DIRECTION('center_axis',(0.,0.,1.));
#478=DIRECTION('ref_axis',(1.,0.,0.));
#479=DIRECTION('center_axis',(0.,0.,-1.));
#480=DIRECTION('ref_axis',(-1.,0.,0.));
#481=DIRECTION('',(0.,1.,0.));
#482=DIRECTION('',(-1.,0.,0.));
#483=DIRECTION('center_axis',(0.,0.,1.));
#484=DIRECTION('ref_axis',(1.,0.,0.));
#485=DIRECTION('',(1.,0.,0.));
#486=DIRECTION('',(0.,1.,0.));
#487=DIRECTION('center_axis',(0.,1.,0.));
#488=DIRECTION('ref_axis',(0.,0.,1.));
#489=DIRECTION('',(1.3412810381264E-16,0.,1.));
#490=DIRECTION('center_axis',(0.,1.,0.));
#491=DIRECTION('ref_axis',(0.,0.,1.));
#492=DIRECTION('',(-1.,0.,0.));
#493=DIRECTION('center_axis',(0.,1.,0.));
#494=DIRECTION('ref_axis',(0.,0.,1.));
#495=DIRECTION('',(1.,0.,0.));
#496=DIRECTION('center_axis',(-1.,0.,1.3412810381264E-16));
#497=DIRECTION('ref_axis',(1.3412810381264E-16,0.,1.));
#498=DIRECTION('',(0.,-1.,9.74563750548767E-17));
#499=DIRECTION('center_axis',(1.,0.,-1.3412810381264E-16));
#500=DIRECTION('ref_axis',(-1.3412810381264E-16,0.,-1.));
#501=DIRECTION('',(0.,1.,2.9236912516463E-16));
#502=DIRECTION('center_axis',(1.,0.,-1.3412810381264E-16));
#503=DIRECTION('ref_axis',(-1.3412810381264E-16,0.,-1.));
#504=DIRECTION('center_axis',(1.,0.,-1.3412810381264E-16));
#505=DIRECTION('ref_axis',(-1.3412810381264E-16,0.,-1.));
#506=DIRECTION('',(1.,0.,-1.3412810381264E-16));
#507=DIRECTION('',(1.,0.,-1.3412810381264E-16));
#508=DIRECTION('center_axis',(-1.3412810381264E-16,2.9236912516463E-16,
-1.));
#509=DIRECTION('ref_axis',(0.,1.,2.9236912516463E-16));
#510=DIRECTION('',(1.,0.,-1.3412810381264E-16));
#511=DIRECTION('center_axis',(1.,0.,-1.3412810381264E-16));
#512=DIRECTION('ref_axis',(-1.3412810381264E-16,0.,-1.));
#513=DIRECTION('',(1.,0.,-1.3412810381264E-16));
#514=DIRECTION('center_axis',(1.3412810381264E-16,9.74563750548767E-17,
1.));
#515=DIRECTION('ref_axis',(1.,0.,-1.3412810381264E-16));
#516=DIRECTION('center_axis',(0.,1.,0.));
#517=DIRECTION('ref_axis',(0.,0.,1.));
#518=DIRECTION('',(0.,1.,0.));
#519=DIRECTION('',(0.,1.,0.));
#520=DIRECTION('center_axis',(0.,0.,-1.));
#521=DIRECTION('ref_axis',(-1.,0.,0.));
#522=DIRECTION('',(0.,1.,0.));
#523=DIRECTION('center_axis',(0.,1.,0.));
#524=DIRECTION('ref_axis',(0.,0.,1.));
#525=DIRECTION('',(0.,1.,0.));
#526=DIRECTION('center_axis',(0.,0.,1.));
#527=DIRECTION('ref_axis',(1.,0.,0.));
#528=CARTESIAN_POINT('',(0.,0.,0.));
#529=CARTESIAN_POINT('Origin',(40.,5.,12.5));
#530=CARTESIAN_POINT('',(4.99999999999961,40.,-9.7));
#531=CARTESIAN_POINT('',(4.99999999999961,40.,-12.5));
#532=CARTESIAN_POINT('',(4.99999999999961,40.,12.5));
#533=CARTESIAN_POINT('',(40.,5.,-9.7));
#534=CARTESIAN_POINT('',(40.,5.,-9.7));
#535=CARTESIAN_POINT('',(40.,5.,-12.5));
#536=CARTESIAN_POINT('',(40.,5.,12.5));
#537=CARTESIAN_POINT('',(40.,5.,-12.5));
#538=CARTESIAN_POINT('Origin',(4.99999999999961,40.,12.5));
#539=CARTESIAN_POINT('',(0.,40.,-12.5));
#540=CARTESIAN_POINT('',(4.99999999999961,40.,-12.5));
#541=CARTESIAN_POINT('',(0.,40.,12.5));
#542=CARTESIAN_POINT('',(0.,40.,12.5));
#543=CARTESIAN_POINT('',(4.99999999999961,40.,12.5));
#544=CARTESIAN_POINT('',(4.99999999999961,40.,12.5));
#545=CARTESIAN_POINT('',(4.99999999999962,40.,9.7));
#546=CARTESIAN_POINT('',(4.99999999999961,40.,12.5));
#547=CARTESIAN_POINT('',(4.99999999999961,40.,-9.7));
#548=CARTESIAN_POINT('Origin',(0.,40.,12.5));
#549=CARTESIAN_POINT('',(0.,0.,-12.5));
#550=CARTESIAN_POINT('',(0.,40.,-12.5));
#551=CARTESIAN_POINT('',(0.,0.,12.5));
#552=CARTESIAN_POINT('',(0.,0.,12.5));
#553=CARTESIAN_POINT('',(0.,40.,12.5));
#554=CARTESIAN_POINT('',(0.,17.35,-4.35));
#555=CARTESIAN_POINT('',(0.,26.25,-4.35));
#556=CARTESIAN_POINT('',(0.,40.,-4.35));
#557=CARTESIAN_POINT('',(0.,26.25,4.35));
#558=CARTESIAN_POINT('Origin',(0.,26.25,-1.22464679914737E-17));
#559=CARTESIAN_POINT('',(0.,17.35,4.35));
#560=CARTESIAN_POINT('',(0.,40.,4.35));
#561=CARTESIAN_POINT('Origin',(0.,17.35,-1.34468475543296E-15));
#562=CARTESIAN_POINT('Origin',(0.,0.,12.5));
#563=CARTESIAN_POINT('',(40.,0.,-12.5));
#564=CARTESIAN_POINT('',(0.,0.,-12.5));
#565=CARTESIAN_POINT('',(40.,0.,12.5));
#566=CARTESIAN_POINT('',(40.,0.,12.5));
#567=CARTESIAN_POINT('',(0.,0.,12.5));
#568=CARTESIAN_POINT('',(26.25,0.,-4.35));
#569=CARTESIAN_POINT('',(17.35,0.,-4.35));
#570=CARTESIAN_POINT('',(0.,0.,-4.35));
#571=CARTESIAN_POINT('',(17.35,0.,4.35));
#572=CARTESIAN_POINT('Origin',(17.35,0.,0.));
#573=CARTESIAN_POINT('',(26.25,0.,4.35));
#574=CARTESIAN_POINT('',(0.,0.,4.35));
#575=CARTESIAN_POINT('Origin',(26.25,0.,0.));
#576=CARTESIAN_POINT('Origin',(40.,0.,12.5));
#577=CARTESIAN_POINT('',(40.,0.,-12.5));
#578=CARTESIAN_POINT('',(40.,5.,9.7));
#579=CARTESIAN_POINT('',(40.,5.,12.5));
#580=CARTESIAN_POINT('',(40.,5.,12.5));
#581=CARTESIAN_POINT('',(40.,5.,12.5));
#582=CARTESIAN_POINT('',(40.,0.,12.5));
#583=CARTESIAN_POINT('Origin',(40.,5.,12.5));
#584=CARTESIAN_POINT('',(40.,5.,9.7));
#585=CARTESIAN_POINT('',(40.,5.,12.5));
#586=CARTESIAN_POINT('Origin',(0.,0.,12.5));
#587=CARTESIAN_POINT('Origin',(0.,0.,-12.5));
#588=CARTESIAN_POINT('Origin',(4.99999999999961,5.,-9.7));
#589=CARTESIAN_POINT('',(4.99999999999961,5.,-9.7));
#590=CARTESIAN_POINT('',(4.99999999999961,5.,-9.7));
#591=CARTESIAN_POINT('',(4.99999999999961,5.,-9.7));
#592=CARTESIAN_POINT('Origin',(4.99999999999962,5.,9.7));
#593=CARTESIAN_POINT('',(4.99999999999962,5.,9.7));
#594=CARTESIAN_POINT('',(4.99999999999962,5.,9.7));
#595=CARTESIAN_POINT('',(4.99999999999962,5.,9.7));
#596=CARTESIAN_POINT('Origin',(0.,5.,0.));
#597=CARTESIAN_POINT('',(4.99999999999961,5.,-9.7));
#598=CARTESIAN_POINT('',(17.35,5.,-4.35));
#599=CARTESIAN_POINT('',(17.35,5.,4.35));
#600=CARTESIAN_POINT('Origin',(17.35,5.,0.));
#601=CARTESIAN_POINT('',(26.25,5.,-4.35));
#602=CARTESIAN_POINT('',(17.35,5.,-4.35));
#603=CARTESIAN_POINT('',(26.25,5.,4.35));
#604=CARTESIAN_POINT('Origin',(26.25,5.,0.));
#605=CARTESIAN_POINT('',(17.35,5.,4.35));
#606=CARTESIAN_POINT('Origin',(4.99999999999961,5.,-9.7));
#607=CARTESIAN_POINT('',(4.99999999999961,26.25,4.35));
#608=CARTESIAN_POINT('',(4.99999999999962,17.35,4.35));
#609=CARTESIAN_POINT('',(4.99999999999962,26.25,4.35));
#610=CARTESIAN_POINT('',(4.99999999999961,26.25,-4.35));
#611=CARTESIAN_POINT('Origin',(4.99999999999961,26.25,-6.8288698705462E-16));
#612=CARTESIAN_POINT('',(4.99999999999961,17.35,-4.35));
#613=CARTESIAN_POINT('',(4.99999999999961,26.25,-4.35));
#614=CARTESIAN_POINT('Origin',(4.99999999999961,17.35,-2.0153252744961E-15));
#615=CARTESIAN_POINT('Origin',(-30.0000000000004,26.25,4.01159664638777E-15));
#616=CARTESIAN_POINT('',(-30.0000000000004,26.25,-4.35));
#617=CARTESIAN_POINT('',(-30.0000000000004,26.25,4.35));
#618=CARTESIAN_POINT('Origin',(-30.0000000000004,26.25,-4.35));
#619=CARTESIAN_POINT('',(-30.0000000000004,17.35,-4.35));
#620=CARTESIAN_POINT('Origin',(-30.0000000000004,17.35,2.67915835894629E-15));
#621=CARTESIAN_POINT('',(-30.0000000000004,17.35,4.35));
#622=CARTESIAN_POINT('Origin',(-30.0000000000004,26.25,4.35));
#623=CARTESIAN_POINT('Origin',(17.35,-30.,0.));
#624=CARTESIAN_POINT('',(17.35,-30.,-4.35));
#625=CARTESIAN_POINT('',(17.35,-30.,4.35));
#626=CARTESIAN_POINT('Origin',(17.35,-30.,-4.35));
#627=CARTESIAN_POINT('',(26.25,-30.,-4.35));
#628=CARTESIAN_POINT('Origin',(26.25,-30.,0.));
#629=CARTESIAN_POINT('',(26.25,-30.,4.35));
#630=CARTESIAN_POINT('Origin',(17.35,-30.,4.35));
#631=UNCERTAINTY_MEASURE_WITH_UNIT(LENGTH_MEASURE(0.01),#635,
'DISTANCE_ACCURACY_VALUE',
'Maximum model space distance between geometric entities at asserted c
onnectivities');
#632=UNCERTAINTY_MEASURE_WITH_UNIT(LENGTH_MEASURE(0.01),#635,
'DISTANCE_ACCURACY_VALUE',
'Maximum model space distance between geometric entities at asserted c
onnectivities');
#633=(
GEOMETRIC_REPRESENTATION_CONTEXT(3)
GLOBAL_UNCERTAINTY_ASSIGNED_CONTEXT((#631))
GLOBAL_UNIT_ASSIGNED_CONTEXT((#635,#637,#638))
REPRESENTATION_CONTEXT('','3D')
);
#634=(
GEOMETRIC_REPRESENTATION_CONTEXT(3)
GLOBAL_UNCERTAINTY_ASSIGNED_CONTEXT((#632))
GLOBAL_UNIT_ASSIGNED_CONTEXT((#635,#637,#638))
REPRESENTATION_CONTEXT('','3D')
);
#635=(
LENGTH_UNIT()
NAMED_UNIT(*)
SI_UNIT(.MILLI.,.METRE.)
);
#636=(
LENGTH_UNIT()
NAMED_UNIT(*)
SI_UNIT(.CENTI.,.METRE.)
);
#637=(
NAMED_UNIT(*)
PLANE_ANGLE_UNIT()
SI_UNIT($,.RADIAN.)
);
#638=(
NAMED_UNIT(*)
SI_UNIT($,.STERADIAN.)
SOLID_ANGLE_UNIT()
);
#639=SHAPE_DEFINITION_REPRESENTATION(#640,#641);
#640=PRODUCT_DEFINITION_SHAPE('',$,#643);
#641=SHAPE_REPRESENTATION('',(#399),#633);
#642=PRODUCT_DEFINITION_CONTEXT('part definition',#647,'design');
#643=PRODUCT_DEFINITION('DSQAL0000005','DSQAL0000005',#644,#642);
#644=PRODUCT_DEFINITION_FORMATION('\X\E4\X\BB',$,#649);
#645=PRODUCT_RELATED_PRODUCT_CATEGORY('DSQAL0000005','DSQAL0000005',(#649));
#646=APPLICATION_PROTOCOL_DEFINITION('international standard',
'automotive_design',2009,#647);
#647=APPLICATION_CONTEXT(
'Core Data for Automotive Mechanical Design Process');
#648=PRODUCT_CONTEXT('part definition',#647,'mechanical');
#649=PRODUCT('DSQAL0000005','DSQAL0000005','STEP AP203',(#648));
#650=PRESENTATION_STYLE_ASSIGNMENT((#651));
#651=SURFACE_STYLE_USAGE(.BOTH.,#654);
#652=SURFACE_STYLE_RENDERING_WITH_PROPERTIES($,#658,(#653));
#653=SURFACE_STYLE_TRANSPARENT(0.);
#654=SURFACE_SIDE_STYLE('',(#655,#652));
#655=SURFACE_STYLE_FILL_AREA(#656);
#656=FILL_AREA_STYLE('',(#657));
#657=FILL_AREA_STYLE_COLOUR('',#658);
#658=COLOUR_RGB('',0.501960784313725,0.501960784313725,0.501960784313725);
ENDSEC;
END-ISO-10303-21;
