  0
SECTION
  2
HEADER
  9
$ACADVER
  1
AC1015
  9
$ACADMAINTVER
 70
    20
  9
$DWGCODEPAGE
  3
ANSI_1252
  9
$INSBASE
 10
0.0
 20
0.0
 30
0.0
  9
$EXTMIN
 10
-81.29604712203073
 20
-8.0
 30
0.0
  9
$EXTMAX
 10
201.2320944499654
 20
287.6348267953136
 30
0.0
  9
$LIMMIN
 10
0.0
 20
0.0
  9
$LIMMAX
 10
210.0
 20
297.0
  9
$ORTHOMODE
 70
     0
  9
$REGENMODE
 70
     1
  9
$FILLMODE
 70
     1
  9
$QTEXTMODE
 70
     0
  9
$MIRRTEXT
 70
     1
  9
$LTSCALE
 40
25.4
  9
$ATTMODE
 70
     1
  9
$TEXTSIZE
 40
0.2
  9
$TRACEWID
 40
0.05
  9
$TEXTSTYLE
  7
Standard
  9
$CLAYER
  8
P-0000
  9
$CELTYPE
  6
CONTINUOUS
  9
$CECOLOR
 62
   256
  9
$CELTSCALE
 40
1.0
  9
$DISPSILH
 70
     0
  9
$DIMSCALE
 40
1.0
  9
$DIMASZ
 40
0.18
  9
$DIMEXO
 40
0.0625
  9
$DIMDLI
 40
0.38
  9
$DIMRND
 40
0.0
  9
$DIMDLE
 40
0.0
  9
$DIMEXE
 40
0.18
  9
$DIMTP
 40
0.0
  9
$DIMTM
 40
0.0
  9
$DIMTXT
 40
0.18
  9
$DIMCEN
 40
0.09
  9
$DIMTSZ
 40
0.0
  9
$DIMTOL
 70
     0
  9
$DIMLIM
 70
     0
  9
$DIMTIH
 70
     1
  9
$DIMTOH
 70
     1
  9
$DIMSE1
 70
     0
  9
$DIMSE2
 70
     0
  9
$DIMTAD
 70
     0
  9
$DIMZIN
 70
     0
  9
$DIMBLK
  1

  9
$DIMASO
 70
     1
  9
$DIMSHO
 70
     1
  9
$DIMPOST
  1

  9
$DIMAPOST
  1

  9
$DIMALT
 70
     0
  9
$DIMALTD
 70
     2
  9
$DIMALTF
 40
25.4
  9
$DIMLFAC
 40
1.0
  9
$DIMTOFL
 70
     0
  9
$DIMTVP
 40
0.0
  9
$DIMTIX
 70
     0
  9
$DIMSOXD
 70
     0
  9
$DIMSAH
 70
     0
  9
$DIMBLK1
  1

  9
$DIMBLK2
  1

  9
$DIMSTYLE
  2
Standard
  9
$DIMCLRD
 70
     0
  9
$DIMCLRE
 70
     0
  9
$DIMCLRT
 70
     0
  9
$DIMTFAC
 40
1.0
  9
$DIMGAP
 40
0.09
  9
$DIMJUST
 70
     0
  9
$DIMSD1
 70
     0
  9
$DIMSD2
 70
     0
  9
$DIMTOLJ
 70
     1
  9
$DIMTZIN
 70
     0
  9
$DIMALTZ
 70
     0
  9
$DIMALTTZ
 70
     0
  9
$DIMUPT
 70
     0
  9
$DIMDEC
 70
     4
  9
$DIMTDEC
 70
     4
  9
$DIMALTU
 70
     2
  9
$DIMALTTD
 70
     2
  9
$DIMTXSTY
  7
Standard
  9
$DIMAUNIT
 70
     0
  9
$DIMADEC
 70
     0
  9
$DIMALTRND
 40
0.0
  9
$DIMAZIN
 70
     0
  9
$DIMDSEP
 70
     0
  9
$DIMATFIT
 70
     3
  9
$DIMFRAC
 70
     0
  9
$DIMLDRBLK
  1

  9
$DIMLUNIT
 70
     2
  9
$DIMLWD
 70
     0
  9
$DIMLWE
 70
     0
  9
$DIMTMOVE
 70
     0
  9
$LUNITS
 70
     2
  9
$LUPREC
 70
     4
  9
$SKETCHINC
 40
0.1
  9
$FILLETRAD
 40
0.0
  9
$AUNITS
 70
     0
  9
$AUPREC
 70
     0
  9
$MENU
  1
acad
  9
$ELEVATION
 40
0.0
  9
$PELEVATION
 40
0.0
  9
$THICKNESS
 40
0.0
  9
$LIMCHECK
 70
     0
  9
$CHAMFERA
 40
0.0
  9
$CHAMFERB
 40
0.0
  9
$CHAMFERC
 40
0.0
  9
$CHAMFERD
 40
0.0
  9
$SKPOLY
 70
     0
  9
$TDCREATE
 40
2455559.623995081
  9
$TDUCREATE
 40
2455559.582328415
  9
$TDUPDATE
 40
2455637.366812790
  9
$TDUUPDATE
 40
2455637.325146123
  9
$TDINDWG
 40
0.0013479398
  9
$TDUSRTIMER
 40
0.0013479398
  9
$USRTIMER
 70
     1
  9
$ANGBASE
 50
0.0
  9
$ANGDIR
 70
     0
  9
$PDMODE
 70
     0
  9
$PDSIZE
 40
0.0
  9
$PLINEWID
 40
0.0
  9
$SPLFRAME
 70
     0
  9
$SPLINETYPE
 70
     6
  9
$SPLINESEGS
 70
     8
  9
$HANDSEED
  5
696
  9
$SURFTAB1
 70
     6
  9
$SURFTAB2
 70
     6
  9
$SURFTYPE
 70
     6
  9
$SURFU
 70
     6
  9
$SURFV
 70
     6
  9
$UCSBASE
  2

  9
$UCSNAME
  2

  9
$UCSORG
 10
0.0
 20
0.0
 30
0.0
  9
$UCSXDIR
 10
1.0
 20
0.0
 30
0.0
  9
$UCSYDIR
 10
0.0
 20
1.0
 30
0.0
  9
$UCSORTHOREF
  2

  9
$UCSORTHOVIEW
 70
     0
  9
$UCSORGTOP
 10
0.0
 20
0.0
 30
0.0
  9
$UCSORGBOTTOM
 10
0.0
 20
0.0
 30
0.0
  9
$UCSORGLEFT
 10
0.0
 20
0.0
 30
0.0
  9
$UCSORGRIGHT
 10
0.0
 20
0.0
 30
0.0
  9
$UCSORGFRONT
 10
0.0
 20
0.0
 30
0.0
  9
$UCSORGBACK
 10
0.0
 20
0.0
 30
0.0
  9
$PUCSBASE
  2

  9
$PUCSNAME
  2

  9
$PUCSORG
 10
0.0
 20
0.0
 30
0.0
  9
$PUCSXDIR
 10
1.0
 20
0.0
 30
0.0
  9
$PUCSYDIR
 10
0.0
 20
1.0
 30
0.0
  9
$PUCSORTHOREF
  2

  9
$PUCSORTHOVIEW
 70
     0
  9
$PUCSORGTOP
 10
0.0
 20
0.0
 30
0.0
  9
$PUCSORGBOTTOM
 10
0.0
 20
0.0
 30
0.0
  9
$PUCSORGLEFT
 10
0.0
 20
0.0
 30
0.0
  9
$PUCSORGRIGHT
 10
0.0
 20
0.0
 30
0.0
  9
$PUCSORGFRONT
 10
0.0
 20
0.0
 30
0.0
  9
$PUCSORGBACK
 10
0.0
 20
0.0
 30
0.0
  9
$USERI1
 70
     0
  9
$USERI2
 70
     0
  9
$USERI3
 70
     0
  9
$USERI4
 70
     0
  9
$USERI5
 70
     0
  9
$USERR1
 40
0.0
  9
$USERR2
 40
0.0
  9
$USERR3
 40
0.0
  9
$USERR4
 40
0.0
  9
$USERR5
 40
0.0
  9
$WORLDVIEW
 70
     1
  9
$SHADEDGE
 70
     3
  9
$SHADEDIF
 70
    70
  9
$TILEMODE
 70
     1
  9
$MAXACTVP
 70
    16
  9
$PINSBASE
 10
0.0
 20
0.0
 30
0.0
  9
$PLIMCHECK
 70
     0
  9
$PEXTMIN
 10
1.000000000000000E+20
 20
1.000000000000000E+20
 30
1.000000000000000E+20
  9
$PEXTMAX
 10
-1.000000000000000E+20
 20
-1.000000000000000E+20
 30
-1.000000000000000E+20
  9
$PLIMMIN
 10
0.0
 20
0.0
  9
$PLIMMAX
 10
12.0
 20
9.0
  9
$UNITMODE
 70
     0
  9
$VISRETAIN
 70
     0
  9
$PLINEGEN
 70
     1
  9
$PSLTSCALE
 70
     0
  9
$TREEDEPTH
 70
  3020
  9
$CMLSTYLE
  2
Standard
  9
$CMLJUST
 70
     0
  9
$CMLSCALE
 40
1.0
  9
$PROXYGRAPHICS
 70
     0
  9
$MEASUREMENT
 70
     0
  9
$CELWEIGHT
370
     0
  9
$ENDCAPS
280
     0
  9
$JOINSTYLE
280
     0
  9
$LWDISPLAY
290
     0
  9
$INSUNITS
 70
     0
  9
$HYPERLINKBASE
  1

  9
$STYLESHEET
  1

  9
$XEDIT
290
     1
  9
$CEPSNTYPE
380
     0
  9
$PSTYLEMODE
290
     1
  9
$FINGERPRINTGUID
  2

  9
$VERSIONGUID
  2
{E83D3B02-2C0F-43D1-92AB-939896FF1E01}
  9
$EXTNAMES
290
     1
  9
$PSVPSCALE
 40
0.0
  9
$OLESTARTUP
290
     0
  0
ENDSEC
  0
SECTION
  2
CLASSES
  0
CLASS
  1
LWPOLYLINE
  2
AcDbPolyline
  3
ObjectDBX Classes
 90
    32768
280
     0
281
     1
  0
CLASS
  1
IMAGE
  2
AcDbRasterImage
  3
ISM
 90
    34943
280
     0
281
     1
  0
CLASS
  1
OLE2FRAME
  2
AcDbOle2Frame
  3
ObjectDBX Classes
 90
    32768
280
     0
281
     1
  0
CLASS
  1
HATCH
  2
AcDbHatch
  3
ObjectDBX Classes
 90
        0
280
     0
281
     1
  0
CLASS
  1
DICTIONARYVAR
  2
AcDbDictionaryVar
  3
ObjectDBX Classes
 90
        0
280
     0
281
     0
  0
CLASS
  1
RASTERVARIABLES
  2
AcDbRasterVariables
  3
ISM
 90
    32768
280
     0
281
     0
  0
CLASS
  1
IMAGEDEF
  2
AcDbRasterImageDef
  3
ISM
 90
    32768
280
     0
281
     0
  0
CLASS
  1
IMAGEDEF_REACTOR
  2
AcDbRasterImageDefReactor
  3
ISM
 90
    32769
280
     0
281
     0
  0
CLASS
  1
IDBUFFER
  2
AcDbIdBuffer
  3
ObjectDBX Classes
 90
    32768
280
     0
281
     0
  0
CLASS
  1
SPATIAL_FILTER
  2
AcDbSpatialFilter
  3
ObjectDBX Classes
 90
    32768
280
     0
281
     0
  0
CLASS
  1
XRECORD
  2
AcDbXrecord
  3
ObjectDBX Classes
 90
        0
280
     0
281
     0
  0
CLASS
  1
SORTENTSTABLE
  2
AcDbSortentsTable
  3
ObjectDBX Classes
 90
    32768
280
     0
281
     0
  0
CLASS
  1
LAYER_INDEX
  2
AcDbLayerIndex
  3
ObjectDBX Classes
 90
    32768
280
     0
281
     0
  0
CLASS
  1
SPATIAL_INDEX
  2
AcDbSpatialIndex
  3
ObjectDBX Classes
 90
    32768
280
     0
281
     0
  0
CLASS
  1
OBJECT_PTR
  2
CAseDLPNTableRecord
  3
ASE-LPNTableRecord
 90
    32769
280
     0
281
     0
  0
CLASS
  1
LAYOUT
  2
AcDbLayout
  3
ObjectDBX Classes
 90
        0
280
     0
281
     0
  0
CLASS
  1
PLOTSETTINGS
  2
AcDbPlotSettings
  3
ObjectDBX Classes
 90
        0
280
     0
281
     0
  0
CLASS
  1
ACDBDICTIONARYWDFLT
  2
AcDbDictionaryWithDefault
  3
ObjectDBX Classes
 90
        0
280
     0
281
     0
  0
CLASS
  1
ACDBPLACEHOLDER
  2
AcDbPlaceHolder
  3
ObjectDBX Classes
 90
        0
280
     0
281
     0
  0
CLASS
  1
VBA_PROJECT
  2
AcDbVbaProject
  3
acad
 90
    32768
280
     0
281
     0
  0
CLASS
  1
WIPEOUT
  2
AcDbWipeout
  3
"WipeOut|Product Desc: Object Enabler for WipeOut entity                        |Company: Autodesk, Inc.                        |WEB Address: www.autodesk.com"
 90
    34943
280
     0
281
     1
  0
CLASS
  1
WIPEOUTVARIABLES
  2
AcDbWipeoutVariables
  3
"WipeOut|Product Desc:     WipeOut Dbx Application|Company:          Autodesk, Inc.|WEB Address:      www.autodesk.com"
 90
        0
280
     0
281
     0
  0
CLASS
  1
RTEXT
  2
RText
  3
RText|AutoCAD Express Tool|expresstools@autodesk.com
 90
    35839
280
     0
281
     1
  0
CLASS
  1
ARCALIGNEDTEXT
  2
AcDbArcAlignedText
  3
ATEXT|AutoCAD Express Tool|expresstools@autodesk.com
 90
    32768
280
     0
281
     1
  0
CLASS
  1
MATERIAL
  2
AcDbMaterial
  3
ObjectDBX Classes
 90
     1153
280
     0
281
     0
  0
CLASS
  1
VISUALSTYLE
  2
AcDbVisualStyle
  3
ObjectDBX Classes
 90
     4095
280
     0
281
     0
  0
CLASS
  1
SCALE
  2
AcDbScale
  3
ObjectDBX Classes
 90
     1153
280
     0
281
     0
  0
CLASS
  1
TABLESTYLE
  2
AcDbTableStyle
  3
ObjectDBX Classes
 90
     4095
280
     0
281
     0
  0
CLASS
  1
MLEADERSTYLE
  2
AcDbMLeaderStyle
  3
ACDB_MLEADERSTYLE_CLASS
 90
     4095
280
     0
281
     0
  0
CLASS
  1
ACDBQSCATEGORY
  2
AcQsCategory
  3
categories
 90
     1024
280
     0
281
     0
  0
CLASS
  1
CELLSTYLEMAP
  2
AcDbCellStyleMap
  3
ObjectDBX Classes
 90
     1152
280
     0
281
     0
  0
ENDSEC
  0
SECTION
  2
TABLES
  0
TABLE
  2
VPORT
  5
7
102
{ACAD_XDICTIONARY
360
5EA
102
}
330
0
100
AcDbSymbolTable
 70
     1
  0
VPORT
  5
15
330
7
100
AcDbSymbolTableRecord
100
AcDbViewportTableRecord
  2
*ACTIVE
 70
     0
 10
0.0
 20
0.0
 11
1.0
 21
1.0
 12
202.381582195179
 22
149.0786196925781
 13
0.0
 23
0.0
 14
1.0
 24
1.0
 15
0.0
 25
0.0
 16
0.0
 26
0.0
 36
1.0
 17
0.0
 27
0.0
 37
0.0
 40
298.1572393851562
 41
2.251225490196078
 42
50.0
 43
0.0
 44
0.0
 50
0.0
 51
0.0
 71
     0
 72
   100
 73
     1
 74
     1
 75
     0
 76
     0
 77
     0
 78
     0
281
     0
 65
     0
110
0.0
120
0.0
130
0.0
111
1.0
121
0.0
131
0.0
112
0.0
122
1.0
132
0.0
 79
     0
146
0.0
  0
ENDTAB
  0
TABLE
  2
LTYPE
  5
4
330
0
100
AcDbSymbolTable
 70
     9
  0
LTYPE
  5
11
330
4
100
AcDbSymbolTableRecord
100
AcDbLinetypeTableRecord
  2
ByBlock
 70
     0
  3

 72
    65
 73
     0
 40
0.0
  0
LTYPE
  5
12
330
4
100
AcDbSymbolTableRecord
100
AcDbLinetypeTableRecord
  2
ByLayer
 70
     0
  3

 72
    65
 73
     0
 40
0.0
  0
LTYPE
  5
13
330
4
100
AcDbSymbolTableRecord
100
AcDbLinetypeTableRecord
  2
CONTINUOUS
 70
     0
  3
Solid line
 72
    65
 73
     0
 40
0.0
  0
LTYPE
  5
28
330
4
100
AcDbSymbolTableRecord
100
AcDbLinetypeTableRecord
  2
HIDDEN2
 70
     0
  3
_ _ _ _ _ _ _ _ _ _ _ _ _ _ _ _ _ _ _ _ _ _ _ _
 72
    65
 73
     2
 40
0.1875
 49
0.125
 74
     0
 49
-0.0625
 74
     0
  0
LTYPE
  5
29
330
4
100
AcDbSymbolTableRecord
100
AcDbLinetypeTableRecord
  2
CENTER2
 70
     0
  3
___ _ ___ _ ___ _ ___ _ ___ _ ___ _ ___ _ ___ _
 72
    65
 73
     4
 40
1.125
 49
0.75
 74
     0
 49
-0.125
 74
     0
 49
0.125
 74
     0
 49
-0.125
 74
     0
  0
LTYPE
  5
2A
330
4
100
AcDbSymbolTableRecord
100
AcDbLinetypeTableRecord
  2
PHANTOM2
 70
     0
  3
___ _ _ ___ _ _ ___ _ _ ___ _ _ ___ _ _ ___ _ _
 72
    65
 73
     6
 40
1.25
 49
0.625
 74
     0
 49
-0.125
 74
     0
 49
0.125
 74
     0
 49
-0.125
 74
     0
 49
0.125
 74
     0
 49
-0.125
 74
     0
  0
LTYPE
  5
2B
330
4
100
AcDbSymbolTableRecord
100
AcDbLinetypeTableRecord
  2
DOT2
 70
     0
  3
...............................................
 72
    65
 73
     2
 40
0.125
 49
0.0
 74
     0
 49
-0.125
 74
     0
  0
LTYPE
  5
469
330
4
100
AcDbSymbolTableRecord
100
AcDbLinetypeTableRecord
  2
ASSI
 70
     0
  3
-.-.-.-.-.-.-.-.-.-.-.-.-.-.-.-.-.-.-.-.-.-.-.-
 72
    65
 73
     4
 40
16.0
 49
10.0
 74
     0
 49
-2.0
 74
     0
 49
2.0
 74
     0
 49
-2.0
 74
     0
  0
LTYPE
  5
46A
330
4
100
AcDbSymbolTableRecord
100
AcDbLinetypeTableRecord
  2
INGOMBRI
 70
     0
  3
--..--..--..--..--..--..--..--..--..--..--..--
 72
    65
 73
     6
 40
20.0
 49
10.0
 74
     0
 49
-2.0
 74
     0
 49
2.0
 74
     0
 49
-2.0
 74
     0
 49
2.0
 74
     0
 49
-2.0
 74
     0
  0
LTYPE
  5
46B
330
4
100
AcDbSymbolTableRecord
100
AcDbLinetypeTableRecord
  2
TRATTEGGIO
 70
     0
  3
- - - - - - - - - - - - - - - - - - - - - -
 72
    65
 73
     2
 40
5.5
 49
4.0
 74
     0
 49
-1.5
 74
     0
  0
LTYPE
  5
46C
330
4
100
AcDbSymbolTableRecord
100
AcDbLinetypeTableRecord
  2
PUNTO
 70
     0
  3
Punto . . . . . . . . . . . . . . . . . . . . .
 72
    65
 73
     2
 40
6.349999999999999
 49
0.0
 74
     0
 49
-6.349999999999999
 74
     0
  0
ENDTAB
  0
TABLE
  2
LAYER
  5
2
330
0
100
AcDbSymbolTable
 70
    23
  0
LAYER
  5
14
102
{ACAD_XDICTIONARY
360
561
102
}
330
2
100
AcDbSymbolTableRecord
100
AcDbLayerTableRecord
  2
0
 70
     0
 62
     7
  6
CONTINUOUS
370
    -3
390
1D
  0
LAYER
  5
2D
102
{ACAD_XDICTIONARY
360
563
102
}
330
2
100
AcDbSymbolTableRecord
100
AcDbLayerTableRecord
  2
1
 70
     0
 62
     7
  6
CONTINUOUS
370
    -3
390
1D
  0
LAYER
  5
2F
102
{ACAD_XDICTIONARY
360
565
102
}
330
2
100
AcDbSymbolTableRecord
100
AcDbLayerTableRecord
  2
11
 70
     0
 62
     7
  6
CONTINUOUS
370
    -3
390
1D
  0
LAYER
  5
31
102
{ACAD_XDICTIONARY
360
567
102
}
330
2
100
AcDbSymbolTableRecord
100
AcDbLayerTableRecord
  2
7
 70
     0
 62
     7
  6
CONTINUOUS
370
    -3
390
1D
  0
LAYER
  5
33
102
{ACAD_XDICTIONARY
360
569
102
}
330
2
100
AcDbSymbolTableRecord
100
AcDbLayerTableRecord
  2
AM_0
 70
     0
 62
     7
  6
CONTINUOUS
370
    -3
390
1D
  0
LAYER
  5
35
102
{ACAD_XDICTIONARY
360
56B
102
}
330
2
100
AcDbSymbolTableRecord
100
AcDbLayerTableRecord
  2
AM_1
 70
     0
 62
     7
  6
CONTINUOUS
370
    -3
390
1D
  0
LAYER
  5
37
102
{ACAD_XDICTIONARY
360
56D
102
}
330
2
100
AcDbSymbolTableRecord
100
AcDbLayerTableRecord
  2
AM_5
 70
     0
 62
     7
  6
CONTINUOUS
370
    -3
390
1D
  0
LAYER
  5
39
102
{ACAD_XDICTIONARY
360
56F
102
}
330
2
100
AcDbSymbolTableRecord
100
AcDbLayerTableRecord
  2
AM_6
 70
     0
 62
     7
  6
CONTINUOUS
370
    -3
390
1D
  0
LAYER
  5
3B
102
{ACAD_XDICTIONARY
360
571
102
}
330
2
100
AcDbSymbolTableRecord
100
AcDbLayerTableRecord
  2
AM_7
 70
     0
 62
     7
  6
CONTINUOUS
370
    -3
390
1D
  0
LAYER
  5
3D
102
{ACAD_XDICTIONARY
360
573
102
}
330
2
100
AcDbSymbolTableRecord
100
AcDbLayerTableRecord
  2
AM_8
 70
     0
 62
     7
  6
CONTINUOUS
370
    -3
390
1D
  0
LAYER
  5
3F
102
{ACAD_XDICTIONARY
360
575
102
}
330
2
100
AcDbSymbolTableRecord
100
AcDbLayerTableRecord
  2
AM_BOR
 70
     0
 62
     7
  6
CONTINUOUS
370
    -3
390
1D
  0
LAYER
  5
41
102
{ACAD_XDICTIONARY
360
577
102
}
330
2
100
AcDbSymbolTableRecord
100
AcDbLayerTableRecord
  2
DEFAULT
 70
     0
 62
     7
  6
CONTINUOUS
370
    -3
390
1D
  0
LAYER
  5
43
330
2
100
AcDbSymbolTableRecord
100
AcDbLayerTableRecord
  2
DEFPOINTS
 70
     0
 62
     7
  6
CONTINUOUS
290
     0
370
    -3
390
1D
  0
LAYER
  5
45
102
{ACAD_XDICTIONARY
360
579
102
}
330
2
100
AcDbSymbolTableRecord
100
AcDbLayerTableRecord
  2
PREDEFINITO
 70
     0
 62
     7
  6
CONTINUOUS
370
    -3
390
1D
  0
LAYER
  5
47
102
{ACAD_XDICTIONARY
360
57B
102
}
330
2
100
AcDbSymbolTableRecord
100
AcDbLayerTableRecord
  2
PROFILATI-IN-ALLUMINIO
 70
     0
 62
     7
  6
CONTINUOUS
370
    -3
390
1D
  0
LAYER
  5
49
102
{ACAD_XDICTIONARY
360
57D
102
}
330
2
100
AcDbSymbolTableRecord
100
AcDbLayerTableRecord
  2
TESTI
 70
     0
 62
     7
  6
CONTINUOUS
370
    -3
390
1D
  0
LAYER
  5
4B
102
{ACAD_XDICTIONARY
360
57F
102
}
330
2
100
AcDbSymbolTableRecord
100
AcDbLayerTableRecord
  2
VARI
 70
     0
 62
     7
  6
CONTINUOUS
370
    -3
390
1D
  0
LAYER
  5
57
102
{ACAD_XDICTIONARY
360
581
102
}
330
2
100
AcDbSymbolTableRecord
100
AcDbLayerTableRecord
  2
19_303_00
 70
     0
 62
     7
  6
CONTINUOUS
370
    -3
390
1D
  0
LAYER
  5
85
102
{ACAD_XDICTIONARY
360
583
102
}
330
2
100
AcDbSymbolTableRecord
100
AcDbLayerTableRecord
  2
DV1_0
 70
     0
 62
     7
  6
CONTINUOUS
370
    -3
390
1D
  0
LAYER
  5
8D
102
{ACAD_XDICTIONARY
360
585
102
}
330
2
100
AcDbSymbolTableRecord
100
AcDbLayerTableRecord
  2
DV2_0
 70
     0
 62
     7
  6
CONTINUOUS
370
    -3
390
1D
  0
LAYER
  5
95
102
{ACAD_XDICTIONARY
360
587
102
}
330
2
100
AcDbSymbolTableRecord
100
AcDbLayerTableRecord
  2
DV3_0
 70
     0
 62
     7
  6
CONTINUOUS
370
    -3
390
1D
  0
LAYER
  5
9D
102
{ACAD_XDICTIONARY
360
589
102
}
330
2
100
AcDbSymbolTableRecord
100
AcDbLayerTableRecord
  2
DV4_0
 70
     0
 62
     7
  6
CONTINUOUS
370
    -3
390
1D
  0
LAYER
  5
461
102
{ACAD_XDICTIONARY
360
58B
102
}
330
2
100
AcDbSymbolTableRecord
100
AcDbLayerTableRecord
  2
P-0000
 70
     0
 62
     7
  6
CONTINUOUS
370
    -3
390
1D
1001
AcAecLayerStandard
1000

1000
TOP
  0
ENDTAB
  0
TABLE
  2
STYLE
  5
3
330
0
100
AcDbSymbolTable
 70
    10
  0
STYLE
  5
17
330
3
100
AcDbSymbolTableRecord
100
AcDbTextStyleTableRecord
  2
Standard
 70
     0
 40
0.0
 41
1.0
 50
0.0
 71
     0
 42
0.2
  3
txt
  4

  0
STYLE
  5
64
330
3
100
AcDbSymbolTableRecord
100
AcDbTextStyleTableRecord
  2
seansi_ttf
 70
     0
 40
0.0
 41
1.0
 50
0.0
 71
     0
 42
0.2
  3
STENCIL.TTF
  4

1001
ACAD
1000
Stencil
1071
        2
  0
STYLE
  5
66
330
3
100
AcDbSymbolTableRecord
100
AcDbTextStyleTableRecord
  2
arial_ttf
 70
     0
 40
0.0
 41
1.0
 50
0.0
 71
     0
 42
0.2
  3
arial.ttf
  4

1001
ACAD
1000
Arial
1071
        2
  0
STYLE
  5
74
330
3
100
AcDbSymbolTableRecord
100
AcDbTextStyleTableRecord
  2
seiso_ttfB
 70
     0
 40
0.0
 41
1.0
 50
0.0
 71
     0
 42
0.2
  3

  4

1001
ACAD
1000
Solid Edge ISO
1071
 33554434
  0
STYLE
  5
A4
330
3
100
AcDbSymbolTableRecord
100
AcDbTextStyleTableRecord
  2
seiso_ttf
 70
     0
 40
0.0
 41
1.0
 50
0.0
 71
     0
 42
0.2
  3

  4

1001
ACAD
1000
Solid Edge ISO
1071
        2
  0
STYLE
  5
B3
330
3
100
AcDbSymbolTableRecord
100
AcDbTextStyleTableRecord
  2
semeci1_ttf
 70
     0
 40
0.0
 41
1.0
 50
0.0
 71
     0
 42
0.2
  3

  4

1001
ACAD
1000
Solid Edge ISO1 Symbols
1071
        2
  0
STYLE
  5
46D
330
3
100
AcDbSymbolTableRecord
100
AcDbTextStyleTableRecord
  2
ROMANS
 70
     0
 40
0.0
 41
0.8
 50
0.0
 71
     0
 42
3.0
  3
ROMANS.shx
  4

  0
STYLE
  5
46E
330
3
100
AcDbSymbolTableRecord
100
AcDbTextStyleTableRecord
  2

 70
     1
 40
0.0
 41
1.0
 50
0.0
 71
     0
 42
0.2
  3
ltypeshp.shx
  4

  0
STYLE
  5
46F
330
3
100
AcDbSymbolTableRecord
100
AcDbTextStyleTableRecord
  2
Stile_Quota
 70
     0
 40
0.0
 41
1.0
 50
0.0
 71
     0
 42
3.0
  3
BOD_I.TTF
  4

1001
ACAD
1000
Bodoni MT
1071
 16777234
  0
STYLE
  5
470
330
3
100
AcDbSymbolTableRecord
100
AcDbTextStyleTableRecord
  2
Stile_Quota_FISSO
 70
     0
 40
20.0
 41
1.0
 50
0.0
 71
     0
 42
3.0
  3
BOD_I.TTF
  4

1001
ACAD
1000
Bodoni MT
1071
 16777234
  0
ENDTAB
  0
TABLE
  2
VIEW
  5
5
330
0
100
AcDbSymbolTable
 70
     0
  0
ENDTAB
  0
TABLE
  2
UCS
  5
6
330
0
100
AcDbSymbolTable
 70
     0
  0
ENDTAB
  0
TABLE
  2
APPID
  5
8
330
0
100
AcDbSymbolTable
 70
    11
  0
APPID
  5
16
330
8
100
AcDbSymbolTableRecord
100
AcDbRegAppTableRecord
  2
ACAD
 70
     0
  0
APPID
  5
462
330
8
100
AcDbSymbolTableRecord
100
AcDbRegAppTableRecord
  2
AcAecLayerStandard
 70
     0
  0
APPID
  5
468
330
8
100
AcDbSymbolTableRecord
100
AcDbRegAppTableRecord
  2
TOP
 70
     0
  0
APPID
  5
474
330
8
100
AcDbSymbolTableRecord
100
AcDbRegAppTableRecord
  2
ACAD_MLEADERVER
 70
     0
  0
APPID
  5
475
330
8
100
AcDbSymbolTableRecord
100
AcDbRegAppTableRecord
  2
ACAD_DSTYLE_DIMJAG
 70
     0
  0
APPID
  5
476
330
8
100
AcDbSymbolTableRecord
100
AcDbRegAppTableRecord
  2
ACAD_DSTYLE_DIMTALN
 70
     0
  0
APPID
  5
477
330
8
100
AcDbSymbolTableRecord
100
AcDbRegAppTableRecord
  2
AcadAnnoPO
 70
     0
  0
APPID
  5
478
330
8
100
AcDbSymbolTableRecord
100
AcDbRegAppTableRecord
  2
ACAD_EXEMPT_FROM_CAD_STANDARDS
 70
     0
  0
APPID
  5
479
330
8
100
AcDbSymbolTableRecord
100
AcDbRegAppTableRecord
  2
ACAD_PSEXT
 70
     0
  0
APPID
  5
47A
330
8
100
AcDbSymbolTableRecord
100
AcDbRegAppTableRecord
  2
ACAD_DSTYLE_DIMBREAK
 70
     0
  0
APPID
  5
592
330
8
100
AcDbSymbolTableRecord
100
AcDbRegAppTableRecord
  2
DCO15
 70
     0
  0
ENDTAB
  0
TABLE
  2
DIMSTYLE
  5
9
330
0
100
AcDbSymbolTable
 70
     5
100
AcDbDimStyleTable
 71
     0
  0
DIMSTYLE
105
18
330
9
100
AcDbSymbolTableRecord
100
AcDbDimStyleTableRecord
  2
Standard
 70
     0
289
     0
340
17
  0
DIMSTYLE
105
A5
330
9
100
AcDbSymbolTableRecord
100
AcDbDimStyleTableRecord
  2
ISO
 70
     0
 41
3.0
 42
0.0
 44
1.5
 73
     0
 74
     0
 77
     1
 78
     8
140
3.0
141
1.5
147
1.5
172
     1
173
     1
176
   136
177
   136
178
   136
271
     0
272
     0
278
    44
284
     8
340
A4
343
A3
344
A3
  0
DIMSTYLE
105
471
330
9
100
AcDbSymbolTableRecord
100
AcDbDimStyleTableRecord
  2
ACADTOP
 70
     0
 41
2.0
 42
1.0
 43
10.0
 44
1.5
 73
     0
 74
     0
 77
     1
 78
     8
 79
     2
140
2.0
141
2.0
146
0.6
147
1.0
172
     1
176
     2
177
     2
178
     1
179
     1
271
     2
272
     2
284
     8
289
     0
340
46F
1001
ACAD_DSTYLE_DIMJAG
1070
   388
1040
1.5
1001
ACAD_DSTYLE_DIMTALN
1070
   392
1070
     0
  0
DIMSTYLE
105
472
330
9
100
AcDbSymbolTableRecord
100
AcDbDimStyleTableRecord
  2
DIERRE_LUNG-ALT
 70
     0
 41
3.0
 42
1.0
 43
10.0
 44
1.5
 73
     0
 74
     0
 75
     1
 76
     1
 78
     8
 79
     2
140
20.0
141
2.0
146
0.6
147
1.0
172
     1
176
     3
177
     3
178
    30
179
     1
271
     1
272
     1
281
     1
282
     1
284
     8
340
470
1001
ACAD_DSTYLE_DIMBREAK
1070
   391
1040
3.75
1001
ACAD_DSTYLE_DIMJAG
1070
   388
1040
1.5
1001
ACAD_DSTYLE_DIMTALN
1070
   392
1070
     0
  0
DIMSTYLE
105
473
330
9
100
AcDbSymbolTableRecord
100
AcDbDimStyleTableRecord
  2
DIERRE_LARG
 70
     0
 41
3.0
 42
1.0
 43
10.0
 44
1.5
 73
     0
 74
     0
 75
     1
 76
     1
 78
     8
 79
     2
140
20.0
141
2.0
146
0.6
147
1.0
172
     1
176
     4
177
     4
178
     4
179
     1
271
     1
272
     1
281
     1
282
     1
284
     8
340
470
1001
ACAD_DSTYLE_DIMBREAK
1070
   391
1040
3.75
1001
ACAD_DSTYLE_DIMJAG
1070
   388
1040
1.5
1001
ACAD_DSTYLE_DIMTALN
1070
   392
1070
     0
  0
ENDTAB
  0
TABLE
  2
BLOCK_RECORD
  5
1
330
0
100
AcDbSymbolTable
 70
    44
  0
BLOCK_RECORD
  5
A
330
1
100
AcDbSymbolTableRecord
100
AcDbBlockTableRecord
  2
*MODEL_SPACE
340
20
  0
BLOCK_RECORD
  5
B
330
1
100
AcDbSymbolTableRecord
100
AcDbBlockTableRecord
  2
*PAPER_SPACE
340
21
  0
BLOCK_RECORD
  5
83
330
1
100
AcDbSymbolTableRecord
100
AcDbBlockTableRecord
  2
SE0
340
0
102
{BLKREFS
331
8A
102
}
  0
BLOCK_RECORD
  5
84
330
1
100
AcDbSymbolTableRecord
100
AcDbBlockTableRecord
  2
SE1
340
0
  0
BLOCK_RECORD
  5
8B
330
1
100
AcDbSymbolTableRecord
100
AcDbBlockTableRecord
  2
SE2
340
0
102
{BLKREFS
331
92
102
}
  0
BLOCK_RECORD
  5
8C
330
1
100
AcDbSymbolTableRecord
100
AcDbBlockTableRecord
  2
SE3
340
0
  0
BLOCK_RECORD
  5
93
330
1
100
AcDbSymbolTableRecord
100
AcDbBlockTableRecord
  2
SE4
340
0
102
{BLKREFS
331
9A
102
}
  0
BLOCK_RECORD
  5
94
330
1
100
AcDbSymbolTableRecord
100
AcDbBlockTableRecord
  2
SE5
340
0
  0
BLOCK_RECORD
  5
9B
330
1
100
AcDbSymbolTableRecord
100
AcDbBlockTableRecord
  2
SE6
340
0
102
{BLKREFS
331
A2
102
}
  0
BLOCK_RECORD
  5
9C
330
1
100
AcDbSymbolTableRecord
100
AcDbBlockTableRecord
  2
SE7
340
0
  0
BLOCK_RECORD
  5
A3
330
1
100
AcDbSymbolTableRecord
100
AcDbBlockTableRecord
  2
_SE_FILLED
340
0
102
{BLKREFS
331
3C4
331
3C5
331
3D0
331
3D1
331
3D9
331
3DA
331
3E4
331
3F0
331
3F8
331
3F9
331
403
331
404
331
40C
331
40D
331
414
331
415
331
41C
331
41D
331
425
331
426
331
42E
331
42F
331
439
331
43A
331
442
331
443
331
44B
331
44C
331
454
331
455
102
}
  0
BLOCK_RECORD
  5
A6
330
1
100
AcDbSymbolTableRecord
100
AcDbBlockTableRecord
  2
SE8
340
0
102
{BLKREFS
331
1F2
102
}
  0
BLOCK_RECORD
  5
A9
330
1
100
AcDbSymbolTableRecord
100
AcDbBlockTableRecord
  2
DMBLK89
340
0
  0
BLOCK_RECORD
  5
AB
330
1
100
AcDbSymbolTableRecord
100
AcDbBlockTableRecord
  2
SE9
340
0
  0
BLOCK_RECORD
  5
AE
330
1
100
AcDbSymbolTableRecord
100
AcDbBlockTableRecord
  2
DMBLK90
340
0
  0
BLOCK_RECORD
  5
B0
330
1
100
AcDbSymbolTableRecord
100
AcDbBlockTableRecord
  2
SE10
340
0
  0
BLOCK_RECORD
  5
B4
330
1
100
AcDbSymbolTableRecord
100
AcDbBlockTableRecord
  2
DMBLK91
340
0
  0
BLOCK_RECORD
  5
B6
330
1
100
AcDbSymbolTableRecord
100
AcDbBlockTableRecord
  2
SE11
340
0
  0
BLOCK_RECORD
  5
B9
330
1
100
AcDbSymbolTableRecord
100
AcDbBlockTableRecord
  2
DMBLK92
340
0
  0
BLOCK_RECORD
  5
BB
330
1
100
AcDbSymbolTableRecord
100
AcDbBlockTableRecord
  2
_SE_BLANK
340
0
102
{BLKREFS
331
3E5
331
3EF
102
}
  0
BLOCK_RECORD
  5
BC
330
1
100
AcDbSymbolTableRecord
100
AcDbBlockTableRecord
  2
SE12
340
0
  0
BLOCK_RECORD
  5
BE
330
1
100
AcDbSymbolTableRecord
100
AcDbBlockTableRecord
  2
DMBLK93
340
0
  0
BLOCK_RECORD
  5
C0
330
1
100
AcDbSymbolTableRecord
100
AcDbBlockTableRecord
  2
SE13
340
0
  0
BLOCK_RECORD
  5
C2
330
1
100
AcDbSymbolTableRecord
100
AcDbBlockTableRecord
  2
DMBLK94
340
0
  0
BLOCK_RECORD
  5
C4
330
1
100
AcDbSymbolTableRecord
100
AcDbBlockTableRecord
  2
SE14
340
0
  0
BLOCK_RECORD
  5
C7
330
1
100
AcDbSymbolTableRecord
100
AcDbBlockTableRecord
  2
DMBLK95
340
0
  0
BLOCK_RECORD
  5
C9
330
1
100
AcDbSymbolTableRecord
100
AcDbBlockTableRecord
  2
SE15
340
0
  0
BLOCK_RECORD
  5
CC
330
1
100
AcDbSymbolTableRecord
100
AcDbBlockTableRecord
  2
DMBLK96
340
0
  0
BLOCK_RECORD
  5
CE
330
1
100
AcDbSymbolTableRecord
100
AcDbBlockTableRecord
  2
SE16
340
0
  0
BLOCK_RECORD
  5
D1
330
1
100
AcDbSymbolTableRecord
100
AcDbBlockTableRecord
  2
DMBLK97
340
0
  0
BLOCK_RECORD
  5
D3
330
1
100
AcDbSymbolTableRecord
100
AcDbBlockTableRecord
  2
SE17
340
0
  0
BLOCK_RECORD
  5
D6
330
1
100
AcDbSymbolTableRecord
100
AcDbBlockTableRecord
  2
DMBLK98
340
0
  0
BLOCK_RECORD
  5
D8
330
1
100
AcDbSymbolTableRecord
100
AcDbBlockTableRecord
  2
SE18
340
0
  0
BLOCK_RECORD
  5
DB
330
1
100
AcDbSymbolTableRecord
100
AcDbBlockTableRecord
  2
DMBLK99
340
0
  0
BLOCK_RECORD
  5
DD
330
1
100
AcDbSymbolTableRecord
100
AcDbBlockTableRecord
  2
SE19
340
0
  0
BLOCK_RECORD
  5
E0
330
1
100
AcDbSymbolTableRecord
100
AcDbBlockTableRecord
  2
DMBLK100
340
0
  0
BLOCK_RECORD
  5
E2
330
1
100
AcDbSymbolTableRecord
100
AcDbBlockTableRecord
  2
SE20
340
0
  0
BLOCK_RECORD
  5
E5
330
1
100
AcDbSymbolTableRecord
100
AcDbBlockTableRecord
  2
DMBLK101
340
0
  0
BLOCK_RECORD
  5
E7
330
1
100
AcDbSymbolTableRecord
100
AcDbBlockTableRecord
  2
SE21
340
0
  0
BLOCK_RECORD
  5
EA
330
1
100
AcDbSymbolTableRecord
100
AcDbBlockTableRecord
  2
DMBLK102
340
0
  0
BLOCK_RECORD
  5
EC
330
1
100
AcDbSymbolTableRecord
100
AcDbBlockTableRecord
  2
SE22
340
0
  0
BLOCK_RECORD
  5
EF
330
1
100
AcDbSymbolTableRecord
100
AcDbBlockTableRecord
  2
DMBLK103
340
0
  0
BLOCK_RECORD
  5
F1
330
1
100
AcDbSymbolTableRecord
100
AcDbBlockTableRecord
  2
SE23
340
0
  0
BLOCK_RECORD
  5
F4
330
1
100
AcDbSymbolTableRecord
100
AcDbBlockTableRecord
  2
DMBLK104
340
0
  0
BLOCK_RECORD
  5
F6
330
1
100
AcDbSymbolTableRecord
100
AcDbBlockTableRecord
  2
SE24
340
0
  0
BLOCK_RECORD
  5
F9
330
1
100
AcDbSymbolTableRecord
100
AcDbBlockTableRecord
  2
DMBLK105
340
0
  0
ENDTAB
  0
ENDSEC
  0
SECTION
  2
BLOCKS
  0
BLOCK
  5
D
330
A
100
AcDbEntity
  8
0
100
AcDbBlockBegin
  2
*MODEL_SPACE
 70
     0
 10
0.0
 20
0.0
 30
0.0
  3
*MODEL_SPACE
  1

  0
ENDBLK
  5
E
330
A
100
AcDbEntity
  8
0
100
AcDbBlockEnd
  0
BLOCK
  5
F
330
B
100
AcDbEntity
 67
     1
  8
0
100
AcDbBlockBegin
  2
*PAPER_SPACE
 70
     0
 10
0.0
 20
0.0
 30
0.0
  3
*PAPER_SPACE
  1

  0
ENDBLK
  5
10
330
B
100
AcDbEntity
 67
     1
  8
0
100
AcDbBlockEnd
  0
BLOCK
  5
126
330
83
100
AcDbEntity
  8
0
 62
     1
 48
0.0
370
     0
100
AcDbBlockBegin
  2
SE0
 70
     0
 10
0.0
 20
0.0
 30
0.0
  3
SE0
  1

  0
ENDBLK
  5
127
330
83
100
AcDbEntity
  8
0
 62
     1
 48
0.0
370
     0
100
AcDbBlockEnd
  0
BLOCK
  5
FB
330
84
100
AcDbEntity
  8
0
 62
     1
 48
0.0
370
     0
100
AcDbBlockBegin
  2
SE1
 70
     0
 10
0.0
 20
0.0
 30
0.0
  3
SE1
  1

  0
LINE
  5
FC
330
84
100
AcDbEntity
  8
DV1_0
  6
Continuous
 62
     7
370
     0
100
AcDbLine
 10
145.50333947019
 20
173.8921531795465
 30
0.0
 11
145.50333947019
 21
181.8921531795465
 31
0.0
  0
ARC
  5
FD
330
84
100
AcDbEntity
  8
0
  6
Continuous
 62
     7
370
     0
100
AcDbCircle
 10
147.00333947019
 20
185.8145293604914
 30
0.0
 40
5.0
100
AcDbArc
 50
328.2405199151873
 51
360.0
  0
LINE
  5
FE
330
84
100
AcDbEntity
  8
0
  6
Continuous
 62
     7
370
     0
100
AcDbLine
 10
151.2546652036293
 20
183.18275628741
 30
0.0
 11
145.50333947019
 21
173.8921531795465
 31
0.0
  0
LINE
  5
FF
330
84
100
AcDbEntity
  8
0
  6
Continuous
 62
     7
370
     0
100
AcDbLine
 10
145.50333947019
 20
199.7150776662546
 30
0.0
 11
130.00333947019
 21
199.7150776662546
 31
0.0
  0
SPLINE
  5
100
330
84
100
AcDbEntity
  8
0
  6
Continuous
 62
     7
370
     0
100
AcDbSpline
210
0.0
220
0.0
230
1.0
 70
     8
 71
     3
 72
    23
 73
    19
 74
     0
 42
0.0000000001
 43
0.0000000001
 40
0.0
 40
0.0
 40
0.0
 40
0.0
 40
0.1250000000000004
 40
0.1250000000000004
 40
0.1250000000000004
 40
0.2500000000000009
 40
0.2500000000000009
 40
0.2500000000000009
 40
0.3750000000000013
 40
0.3750000000000013
 40
0.3750000000000013
 40
0.5000000000000018
 40
0.5000000000000018
 40
0.5000000000000018
 40
0.7500000000000009
 40
0.7500000000000009
 40
0.7500000000000009
 40
1.0
 40
1.0
 40
1.0
 40
1.0
 10
151.00333947019
 20
189.2690475539288
 30
0.0
 10
151.0989885718307
 20
189.2690475539288
 30
0.0
 10
151.191225218403
 20
189.2412518053772
 30
0.0
 10
151.2719454715054
 20
189.1985094963844
 30
0.0
 10
151.3526657246078
 20
189.1557671873916
 30
0.0
 10
151.4236336125511
 20
189.0985889476223
 30
0.0
 10
151.4855585847381
 20
189.0369463761109
 30
0.0
 10
151.5474835569251
 20
188.9753038045995
 30
0.0
 10
151.6020393906464
 20
188.90744058746
 30
0.0
 10
151.6501244273463
 20
188.8379334977263
 30
0.0
 10
151.6982094640462
 20
188.7684264079926
 30
0.0
 10
151.740070145595
 20
188.6969924709556
 30
0.0
 10
151.7772084754996
 20
188.624340936806
 30
0.0
 10
151.8514851353089
 20
188.4790378685069
 30
0.0
 10
151.907306463058
 20
188.3277512326344
 30
0.0
 10
151.9450998986299
 20
188.1788117299566
 30
0.0
 10
151.982893334202
 20
188.0298722272788
 30
0.0
 10
152.00333947019
 20
187.8820515349339
 30
0.0
 10
152.00333947019
 20
187.7352989300541
 30
0.0
  0
LINE
  5
101
330
84
100
AcDbEntity
  8
0
  6
HIDDEN2
 62
     7
370
     0
100
AcDbLine
 10
133.75333947019
 20
173.8921531795465
 30
0.0
 11
133.75333947019
 21
180.8921531795465
 31
0.0
  0
LINE
  5
102
330
84
100
AcDbEntity
  8
0
  6
Continuous
 62
     7
370
     0
100
AcDbLine
 10
152.00333947019
 20
184.4163092452123
 30
0.0
 11
152.00333947019
 21
184.3921531795464
 31
0.0
  0
LINE
  5
103
330
84
100
AcDbEntity
  8
0
  6
Continuous
 62
     7
370
     0
100
AcDbLine
 10
123.00333947019
 20
181.8921531795464
 30
0.0
 11
123.00333947019
 21
173.8921531795464
 31
0.0
  0
LINE
  5
104
330
84
100
AcDbEntity
  8
0
  6
HIDDEN2
 62
     7
370
     0
100
AcDbLine
 10
145.50333947019
 20
185.9088384059986
 30
0.0
 11
151.00333947019
 21
185.9088384059986
 31
0.0
  0
ARC
  5
105
330
84
100
AcDbEntity
  8
0
  6
Continuous
 62
     7
370
     0
100
AcDbCircle
 10
151.0398910373807
 20
179.9938978283955
 30
0.0
 40
4.526141361281413
100
AcDbArc
 50
77.70981042387349
 51
80.16810622668581
  0
ARC
  5
106
330
84
100
AcDbEntity
  8
0
  6
HIDDEN2
 62
     7
370
     0
100
AcDbCircle
 10
151.0398910373807
 20
179.9938978283955
 30
0.0
 40
4.526141361281413
100
AcDbArc
 50
80.16810622668581
 51
91.70577188361582
  0
LINE
  5
107
330
84
100
AcDbEntity
  8
0
  6
Continuous
 62
     7
370
     0
100
AcDbLine
 10
145.50333947019
 20
173.8921531795465
 30
0.0
 11
123.00333947019
 21
173.8921531795465
 31
0.0
  0
LINE
  5
108
330
84
100
AcDbEntity
  8
0
  6
HIDDEN2
 62
     7
370
     0
100
AcDbLine
 10
125.50333947019
 20
181.8921531795464
 30
0.0
 11
125.50333947019
 21
180.8921531795464
 31
0.0
  0
LINE
  5
109
330
84
100
AcDbEntity
  8
0
  6
Continuous
 62
     7
370
     0
100
AcDbLine
 10
151.2546652036293
 20
183.18275628741
 30
0.0
 11
150.4044000569415
 21
183.7091109020262
 31
0.0
  0
ARC
  5
10A
330
84
100
AcDbEntity
  8
0
  6
Continuous
 62
     7
370
     0
100
AcDbCircle
 10
147.00333947019
 20
185.8145293604914
 30
0.0
 40
4.0
100
AcDbArc
 50
328.2405199151872
 51
360.0
  0
LINE
  5
10B
330
84
100
AcDbEntity
  8
0
  6
Continuous
 62
     7
370
     0
100
AcDbLine
 10
153.00333947019
 20
202.3921531795465
 30
0.0
 11
130.00333947019
 21
202.3921531795465
 31
0.0
  0
LINE
  5
10C
330
84
100
AcDbEntity
  8
0
  6
Continuous
 62
     7
370
     0
100
AcDbLine
 10
137.00333947019
 20
181.8921531795464
 30
0.0
 11
123.00333947019
 21
181.8921531795464
 31
0.0
  0
LINE
  5
10D
330
84
100
AcDbEntity
  8
0
  6
Continuous
 62
     7
370
     0
100
AcDbLine
 10
145.50333947019
 20
189.2690475539288
 30
0.0
 11
151.00333947019
 21
189.2690475539288
 31
0.0
  0
LINE
  5
10E
330
84
100
AcDbEntity
  8
0
  6
Continuous
 62
     7
370
     0
100
AcDbLine
 10
130.00333947019
 20
181.8921531795464
 30
0.0
 11
130.00333947019
 21
197.08623306302
 31
0.0
  0
LINE
  5
10F
330
84
100
AcDbEntity
  8
0
  6
Continuous
 62
     7
370
     0
100
AcDbLine
 10
145.50333947019
 20
181.8921531795464
 30
0.0
 11
145.50333947019
 21
199.7150776662546
 31
0.0
  0
SPLINE
  5
110
330
84
100
AcDbEntity
  8
0
  6
HIDDEN2
 62
     7
370
     0
100
AcDbSpline
210
0.0
220
0.0
230
1.0
 70
     8
 71
     3
 72
    20
 73
    16
 74
     0
 42
0.0000000001
 43
0.0000000001
 40
0.0
 40
0.0
 40
0.0
 40
0.0
 40
0.0005059061853608
 40
0.0005059061853608
 40
0.0005059061853608
 40
0.0009181838725528
 40
0.0009181838725528
 40
0.0009181838725528
 40
0.0012588126851699
 40
0.0012588126851699
 40
0.0012588126851699
 40
0.0016025003711138
 40
0.0016025003711138
 40
0.0016025003711138
 40
0.0017815410486055
 40
0.0017815410486055
 40
0.0017815410486055
 40
0.0017815410486055
 10
152.00333947019
 20
186.6839492470471
 30
0.0
 10
152.00333947019
 20
186.5715256503002
 30
0.0
 10
151.9793382462782
 20
186.4611511446321
 30
0.0
 10
151.9275247691808
 20
186.3609760804097
 30
0.0
 10
151.8852456737316
 20
186.2792345849698
 30
0.0
 10
151.8231912441868
 20
186.2024097377044
 30
0.0
 10
151.7415838326938
 20
186.1368513164059
 30
0.0
 10
151.6740682215604
 20
186.0826133887725
 30
0.0
 10
151.5913847448657
 20
186.0348455408211
 30
0.0
 10
151.4977871424518
 20
185.9979008666121
 30
0.0
 10
151.4036915394549
 20
185.9607596225251
 30
0.0
 10
151.2953800459589
 20
185.9335634074549
 30
0.0
 10
151.1836221346019
 20
185.9198121832791
 30
0.0
 10
151.124590755497
 20
185.9125486820413
 30
0.0
 10
151.0637921479356
 20
185.9088384059986
 30
0.0
 10
151.00333947019
 20
185.9088384059986
 30
0.0
  0
LINE
  5
111
330
84
100
AcDbEntity
  8
0
  6
Continuous
 62
     7
370
     0
100
AcDbLine
 10
130.00333947019
 20
202.3921531795465
 30
0.0
 11
130.00333947019
 21
199.7150776662546
 31
0.0
  0
LINE
  5
112
330
84
100
AcDbEntity
  8
0
  6
Continuous
 62
     7
370
     0
100
AcDbLine
 10
145.50333947019
 20
175.79201303112
 30
0.0
 11
150.4044000569415
 21
183.7091109020262
 31
0.0
  0
LINE
  5
113
330
84
100
AcDbEntity
  8
0
  6
Continuous
 62
     7
370
     0
100
AcDbLine
 10
130.00333947019
 20
197.08623306302
 30
0.0
 11
130.00333947019
 21
199.7150776662546
 31
0.0
  0
LINE
  5
114
330
84
100
AcDbEntity
  8
0
  6
Continuous
 62
     7
370
     0
100
AcDbLine
 10
152.00333947019
 20
184.3921531795464
 30
0.0
 11
153.00333947019
 21
184.3921531795464
 31
0.0
  0
LINE
  5
115
330
84
100
AcDbEntity
  8
0
  6
HIDDEN2
 62
     7
370
     0
100
AcDbLine
 10
145.50333947019
 20
184.518033504897
 30
0.0
 11
150.9051616682425
 21
184.518033504897
 31
0.0
  0
LINE
  5
116
330
84
100
AcDbEntity
  8
0
  6
HIDDEN2
 62
     7
370
     0
100
AcDbLine
 10
136.50333947019
 20
180.8921531795464
 30
0.0
 11
125.50333947019
 21
180.8921531795464
 31
0.0
  0
LINE
  5
117
330
84
100
AcDbEntity
  8
0
  6
HIDDEN2
 62
     7
370
     0
100
AcDbLine
 10
130.00333947019
 20
189.3921531795464
 30
0.0
 11
153.00333947019
 21
189.3921531795464
 31
0.0
  0
LINE
  5
118
330
84
100
AcDbEntity
  8
0
  6
HIDDEN2
 62
     7
370
     0
100
AcDbLine
 10
128.25333947019
 20
180.8921531795465
 30
0.0
 11
128.25333947019
 21
173.8921531795465
 31
0.0
  0
LINE
  5
119
330
84
100
AcDbEntity
  8
0
  6
Continuous
 62
     7
370
     0
100
AcDbLine
 10
137.00333947019
 20
197.08623306302
 30
0.0
 11
137.00333947019
 21
181.8921531795465
 31
0.0
  0
LINE
  5
11A
330
84
100
AcDbEntity
  8
0
  6
Continuous
 62
     7
370
     0
100
AcDbLine
 10
145.50333947019
 20
181.8921531795464
 30
0.0
 11
137.00333947019
 21
181.8921531795464
 31
0.0
  0
LINE
  5
11B
330
84
100
AcDbEntity
  8
0
  6
Continuous
 62
     7
370
     0
100
AcDbLine
 10
151.00333947019
 20
185.8145293604914
 30
0.0
 11
151.00333947019
 21
189.2690475539288
 31
0.0
  0
LINE
  5
11C
330
84
100
AcDbEntity
  8
0
  6
HIDDEN2
 62
     7
370
     0
100
AcDbLine
 10
136.50333947019
 20
180.8921531795464
 30
0.0
 11
136.50333947019
 21
181.8921531795464
 31
0.0
  0
LINE
  5
11D
330
84
100
AcDbEntity
  8
0
  6
HIDDEN2
 62
     7
370
     0
100
AcDbLine
 10
145.50333947019
 20
184.518033504897
 30
0.0
 11
150.9051616682425
 21
184.518033504897
 31
0.0
  0
LINE
  5
11E
330
84
100
AcDbEntity
  8
0
  6
Continuous
 62
     7
370
     0
100
AcDbLine
 10
153.00333947019
 20
202.3921531795465
 30
0.0
 11
153.00333947019
 21
184.3921531795464
 31
0.0
  0
LINE
  5
11F
330
84
100
AcDbEntity
  8
0
  6
Continuous
 62
     7
370
     0
100
AcDbLine
 10
152.00333947019
 20
184.3921531795464
 30
0.0
 11
151.2546652036293
 21
183.1827562874099
 31
0.0
  0
LINE
  5
120
330
84
100
AcDbEntity
  8
0
  6
HIDDEN2
 62
     7
370
     0
100
AcDbLine
 10
145.50333947019
 20
189.2690475539288
 30
0.0
 11
151.00333947019
 21
189.2690475539288
 31
0.0
  0
LINE
  5
121
330
84
100
AcDbEntity
  8
0
  6
Continuous
 62
     7
370
     0
100
AcDbLine
 10
137.00333947019
 20
197.08623306302
 30
0.0
 11
130.00333947019
 21
197.08623306302
 31
0.0
  0
LINE
  5
122
330
84
100
AcDbEntity
  8
0
  6
HIDDEN2
 62
     7
370
     0
100
AcDbLine
 10
153.00333947019
 20
197.3921531795465
 30
0.0
 11
130.00333947019
 21
197.3921531795465
 31
0.0
  0
LINE
  5
123
330
84
100
AcDbEntity
  8
0
  6
Continuous
 62
     7
370
     0
100
AcDbLine
 10
151.00333947019
 20
185.8145293604914
 30
0.0
 11
152.00333947019
 21
185.8145293604914
 31
0.0
  0
LINE
  5
124
330
84
100
AcDbEntity
  8
0
  6
Continuous
 62
     7
370
     0
100
AcDbLine
 10
152.00333947019
 20
187.7352989300541
 30
0.0
 11
152.00333947019
 21
185.8145293604914
 31
0.0
  0
ENDBLK
  5
2F9
330
84
100
AcDbEntity
  8
0
370
     0
100
AcDbBlockEnd
  0
BLOCK
  5
141
330
8B
100
AcDbEntity
  8
0
 62
     1
 48
0.0
370
     0
100
AcDbBlockBegin
  2
SE2
 70
     0
 10
0.0
 20
0.0
 30
0.0
  3
SE2
  1

  0
ENDBLK
  5
142
330
8B
100
AcDbEntity
  8
0
 62
     1
 48
0.0
370
     0
100
AcDbBlockEnd
  0
BLOCK
  5
128
330
8C
100
AcDbEntity
  8
0
 62
     1
 48
0.0
370
     0
100
AcDbBlockBegin
  2
SE3
 70
     0
 10
0.0
 20
0.0
 30
0.0
  3
SE3
  1

  0
LINE
  5
129
330
8C
100
AcDbEntity
  8
DV2_0
  6
Continuous
 62
     7
370
     0
100
AcDbLine
 10
145.50333947019
 20
115.5961060575157
 30
0.0
 11
153.00333947019
 21
115.5961060575157
 31
0.0
  0
CIRCLE
  5
12A
330
8C
100
AcDbEntity
  8
0
  6
Continuous
 62
     7
370
     0
100
AcDbCircle
 10
131.00333947019
 20
108.5961060575157
 30
0.0
 40
5.5
  0
CIRCLE
  5
12B
330
8C
100
AcDbEntity
  8
0
  6
Continuous
 62
     7
370
     0
100
AcDbCircle
 10
131.00333947019
 20
140.5961060575157
 30
0.0
 40
5.5
  0
CIRCLE
  5
12C
330
8C
100
AcDbEntity
  8
0
  6
Continuous
 62
     7
370
     0
100
AcDbCircle
 10
131.00333947019
 20
140.5961060575157
 30
0.0
 40
2.75
  0
CIRCLE
  5
12D
330
8C
100
AcDbEntity
  8
0
  6
Continuous
 62
     7
370
     0
100
AcDbCircle
 10
131.00333947019
 20
108.5961060575157
 30
0.0
 40
2.75
  0
LINE
  5
12E
330
8C
100
AcDbEntity
  8
0
  6
Continuous
 62
     7
370
     0
100
AcDbLine
 10
145.50333947019
 20
118.1913714076347
 30
0.0
 11
130.00333947019
 21
118.1913714076347
 31
0.0
  0
LINE
  5
12F
330
8C
100
AcDbEntity
  8
0
  6
Continuous
 62
     7
370
     0
100
AcDbLine
 10
145.50333947019
 20
131.0008407073967
 30
0.0
 11
130.00333947019
 21
131.0008407073967
 31
0.0
  0
LINE
  5
130
330
8C
100
AcDbEntity
  8
0
  6
Continuous
 62
     7
370
     0
100
AcDbLine
 10
145.50333947019
 20
100.5961060575157
 30
0.0
 11
137.00333947019
 21
100.5961060575157
 31
0.0
  0
LINE
  5
131
330
8C
100
AcDbEntity
  8
0
  6
Continuous
 62
     7
370
     0
100
AcDbLine
 10
145.50333947019
 20
148.5961060575157
 30
0.0
 11
137.00333947019
 21
148.5961060575157
 31
0.0
  0
LINE
  5
132
330
8C
100
AcDbEntity
  8
0
  6
Continuous
 62
     7
370
     0
100
AcDbLine
 10
153.00333947019
 20
115.5961060575158
 30
0.0
 11
153.00333947019
 21
133.5961060575156
 31
0.0
  0
LINE
  5
133
330
8C
100
AcDbEntity
  8
0
  6
Continuous
 62
     7
370
     0
100
AcDbLine
 10
137.00333947019
 20
133.5961060575157
 30
0.0
 11
130.00333947019
 21
133.5961060575157
 31
0.0
  0
LINE
  5
134
330
8C
100
AcDbEntity
  8
0
  6
Continuous
 62
     7
370
     0
100
AcDbLine
 10
137.00333947019
 20
133.5961060575157
 30
0.0
 11
137.00333947019
 21
148.5961060575157
 31
0.0
  0
LINE
  5
135
330
8C
100
AcDbEntity
  8
0
  6
Continuous
 62
     7
370
     0
100
AcDbLine
 10
137.00333947019
 20
148.5961060575157
 30
0.0
 11
123.00333947019
 21
148.5961060575157
 31
0.0
  0
LINE
  5
136
330
8C
100
AcDbEntity
  8
0
  6
Continuous
 62
     7
370
     0
100
AcDbLine
 10
123.00333947019
 20
148.5961060575157
 30
0.0
 11
123.00333947019
 21
100.5961060575157
 31
0.0
  0
LINE
  5
137
330
8C
100
AcDbEntity
  8
0
  6
Continuous
 62
     7
370
     0
100
AcDbLine
 10
137.00333947019
 20
115.5961060575157
 30
0.0
 11
137.00333947019
 21
100.5961060575157
 31
0.0
  0
LINE
  5
138
330
8C
100
AcDbEntity
  8
0
  6
Continuous
 62
     7
370
     0
100
AcDbLine
 10
137.00333947019
 20
115.5961060575157
 30
0.0
 11
130.00333947019
 21
115.5961060575157
 31
0.0
  0
LINE
  5
139
330
8C
100
AcDbEntity
  8
0
  6
Continuous
 62
     7
370
     0
100
AcDbLine
 10
137.00333947019
 20
100.5961060575157
 30
0.0
 11
123.00333947019
 21
100.5961060575157
 31
0.0
  0
LINE
  5
13A
330
8C
100
AcDbEntity
  8
0
  6
Continuous
 62
     7
370
     0
100
AcDbLine
 10
130.00333947019
 20
118.1913714076347
 30
0.0
 11
130.00333947019
 21
131.0008407073967
 31
0.0
  0
LINE
  5
13B
330
8C
100
AcDbEntity
  8
0
  6
Continuous
 62
     7
370
     0
100
AcDbLine
 10
130.00333947019
 20
115.5961060575157
 30
0.0
 11
130.00333947019
 21
118.1913714076347
 31
0.0
  0
LINE
  5
13C
330
8C
100
AcDbEntity
  8
0
  6
Continuous
 62
     7
370
     0
100
AcDbLine
 10
130.00333947019
 20
131.0008407073967
 30
0.0
 11
130.00333947019
 21
133.5961060575157
 31
0.0
  0
LINE
  5
13D
330
8C
100
AcDbEntity
  8
0
  6
Continuous
 62
     7
370
     0
100
AcDbLine
 10
145.50333947019
 20
100.5961060575157
 30
0.0
 11
145.50333947019
 21
118.1913714076347
 31
0.0
  0
LINE
  5
13E
330
8C
100
AcDbEntity
  8
0
  6
Continuous
 62
     7
370
     0
100
AcDbLine
 10
145.50333947019
 20
131.0008407073967
 30
0.0
 11
145.50333947019
 21
148.5961060575157
 31
0.0
  0
LINE
  5
13F
330
8C
100
AcDbEntity
  8
0
  6
Continuous
 62
     7
370
     0
100
AcDbLine
 10
153.00333947019
 20
133.5961060575157
 30
0.0
 11
145.50333947019
 21
133.5961060575157
 31
0.0
  0
ENDBLK
  5
2FA
330
8C
100
AcDbEntity
  8
0
370
     0
100
AcDbBlockEnd
  0
BLOCK
  5
193
330
93
100
AcDbEntity
  8
0
 62
     1
 48
0.0
370
     0
100
AcDbBlockBegin
  2
SE4
 70
     0
 10
0.0
 20
0.0
 30
0.0
  3
SE4
  1

  0
ENDBLK
  5
194
330
93
100
AcDbEntity
  8
0
 62
     1
 48
0.0
370
     0
100
AcDbBlockEnd
  0
BLOCK
  5
143
330
94
100
AcDbEntity
  8
0
 62
     1
 48
0.0
370
     0
100
AcDbBlockBegin
  2
SE5
 70
     0
 10
0.0
 20
0.0
 30
0.0
  3
SE5
  1

  0
ELLIPSE
  5
144
330
94
100
AcDbEntity
  8
DV3_0
  6
Continuous
 62
     7
370
     0
100
AcDbEllipse
 10
73.2072923481593
 20
186.2920130311201
 30
0.0
 11
0.0000000000000025
 21
-1.89985985157361
 31
0.0
210
0.0
220
0.0
230
1.0
 40
0.5263546146162956
 41
6.123550147437574
 42
6.283185307179583
  0
LINE
  5
145
330
94
100
AcDbEntity
  8
0
  6
Continuous
 62
     7
370
     0
100
AcDbLine
 10
72.20729234815931
 20
175.79201303112
 30
0.0
 11
72.2072923481593
 21
184.518033504897
 31
0.0
  0
LINE
  5
146
330
94
100
AcDbEntity
  8
0
  6
HIDDEN2
 62
     7
370
     0
100
AcDbLine
 10
84.20729234815935
 20
180.8921531795464
 30
0.0
 11
95.20729234815926
 21
180.8921531795464
 31
0.0
  0
CIRCLE
  5
147
330
94
100
AcDbEntity
  8
0
  6
Continuous
 62
     7
370
     0
100
AcDbCircle
 10
73.70729234815931
 20
193.3921531795465
 30
0.0
 40
4.0
  0
LINE
  5
148
330
94
100
AcDbEntity
  8
0
  6
HIDDEN2
 62
     7
370
     0
100
AcDbLine
 10
52.20729234815936
 20
180.8921531795464
 30
0.0
 11
63.20729234815924
 21
180.8921531795464
 31
0.0
  0
LINE
  5
149
330
94
100
AcDbEntity
  8
0
  6
Continuous
 62
     7
370
     0
100
AcDbLine
 10
66.70729234815931
 20
183.18275628741
 30
0.0
 11
66.70729234815931
 21
185.8145293604914
 31
0.0
  0
LINE
  5
14A
330
94
100
AcDbEntity
  8
0
  6
Continuous
 62
     7
370
     0
100
AcDbLine
 10
79.70729234815931
 20
183.18275628741
 30
0.0
 11
79.7072923481593
 21
173.8921531795465
 31
0.0
  0
LINE
  5
14B
330
94
100
AcDbEntity
  8
0
  6
Continuous
 62
     7
370
     0
100
AcDbLine
 10
79.70729234815931
 20
185.8145293604914
 30
0.0
 11
79.70729234815931
 21
183.18275628741
 31
0.0
  0
LINE
  5
14C
330
94
100
AcDbEntity
  8
0
  6
Continuous
 62
     7
370
     0
100
AcDbLine
 10
80.70729234815932
 20
185.8145293604914
 30
0.0
 11
80.70729234815932
 21
183.18275628741
 31
0.0
  0
LINE
  5
14D
330
94
100
AcDbEntity
  8
0
  6
Continuous
 62
     7
370
     0
100
AcDbLine
 10
78.7072923481593
 20
175.79201303112
 30
0.0
 11
78.70729234815931
 21
183.7091109020262
 31
0.0
  0
ELLIPSE
  5
14E
330
94
100
AcDbEntity
  8
0
  6
Continuous
 62
     7
370
     0
100
AcDbEllipse
 10
79.70729234815931
 20
183.7091109020263
 30
0.0
 11
1.0
 21
-0.0000000000000035
 31
0.0
210
0.0
220
0.0
230
1.0
 40
0.5263546146162945
 41
3.141592653589793
 42
4.712388980384691
  0
LINE
  5
14F
330
94
100
AcDbEntity
  8
0
  6
Continuous
 62
     7
370
     0
100
AcDbLine
 10
78.70729234815931
 20
185.8145293604914
 30
0.0
 11
78.70729234815931
 21
183.7091109020262
 31
0.0
  0
LINE
  5
150
330
94
100
AcDbEntity
  8
0
  6
Continuous
 62
     7
370
     0
100
AcDbLine
 10
79.70729234815931
 20
186.6839492470471
 30
0.0
 11
79.70729234815931
 21
185.8145293604914
 31
0.0
  0
LINE
  5
151
330
94
100
AcDbEntity
  8
0
  6
Continuous
 62
     7
370
     0
100
AcDbLine
 10
80.70729234815932
 20
183.18275628741
 30
0.0
 11
79.70729234815931
 21
183.18275628741
 31
0.0
  0
LINE
  5
152
330
94
100
AcDbEntity
  8
0
  6
Continuous
 62
     7
370
     0
100
AcDbLine
 10
67.70729234815931
 20
183.18275628741
 30
0.0
 11
66.70729234815931
 21
183.18275628741
 31
0.0
  0
LINE
  5
153
330
94
100
AcDbEntity
  8
0
  6
Continuous
 62
     7
370
     0
100
AcDbLine
 10
66.70729234815931
 20
185.8145293604914
 30
0.0
 11
67.70729234815931
 21
185.8145293604914
 31
0.0
  0
ELLIPSE
  5
154
330
94
100
AcDbEntity
  8
0
  6
Continuous
 62
     7
370
     0
100
AcDbEllipse
 10
67.70729234815931
 20
183.7091109020263
 30
0.0
 11
1.0
 21
0.0000000000000035
 31
0.0
210
0.0
220
0.0
230
1.0
 40
0.5263546146162947
 41
4.712388980384687
 42
6.283185307179586
  0
LINE
  5
155
330
94
100
AcDbEntity
  8
0
  6
Continuous
 62
     7
370
     0
100
AcDbLine
 10
68.70729234815931
 20
183.7091109020263
 30
0.0
 11
68.70729234815931
 21
185.8145293604914
 31
0.0
  0
LINE
  5
156
330
94
100
AcDbEntity
  8
0
  6
Continuous
 62
     7
370
     0
100
AcDbLine
 10
80.70729234815932
 20
185.8145293604914
 30
0.0
 11
81.70729234815931
 21
185.8145293604914
 31
0.0
  0
LINE
  5
157
330
94
100
AcDbEntity
  8
0
  6
Continuous
 62
     7
370
     0
100
AcDbLine
 10
81.70729234815929
 20
183.7091109020263
 30
0.0
 11
81.70729234815929
 21
185.8145293604914
 31
0.0
  0
LINE
  5
158
330
94
100
AcDbEntity
  8
0
  6
Continuous
 62
     7
370
     0
100
AcDbLine
 10
65.70729234815932
 20
185.8145293604914
 30
0.0
 11
66.70729234815931
 21
185.8145293604914
 31
0.0
  0
LINE
  5
159
330
94
100
AcDbEntity
  8
0
  6
Continuous
 62
     7
370
     0
100
AcDbLine
 10
67.70729234815931
 20
185.8145293604914
 30
0.0
 11
68.70729234815931
 21
185.8145293604914
 31
0.0
  0
LINE
  5
15A
330
94
100
AcDbEntity
  8
0
  6
Continuous
 62
     7
370
     0
100
AcDbLine
 10
67.70729234815931
 20
185.8145293604914
 30
0.0
 11
67.70729234815931
 21
186.6839492470471
 31
0.0
  0
LINE
  5
15B
330
94
100
AcDbEntity
  8
0
  6
Continuous
 62
     7
370
     0
100
AcDbLine
 10
65.70729234815932
 20
185.8145293604914
 30
0.0
 11
65.70729234815932
 21
183.7091109020262
 31
0.0
  0
ELLIPSE
  5
15C
330
94
100
AcDbEntity
  8
0
  6
Continuous
 62
     7
370
     0
100
AcDbEllipse
 10
66.70729234815931
 20
183.7091109020263
 30
0.0
 11
1.0
 21
0.0
 31
0.0
210
0.0
220
0.0
230
1.0
 40
0.5263546146162911
 41
3.141592653589793
 42
4.712388980384689
  0
ELLIPSE
  5
15D
330
94
100
AcDbEntity
  8
0
  6
Continuous
 62
     7
370
     0
100
AcDbEllipse
 10
67.70729234815931
 20
175.79201303112
 30
0.0
 11
0.0
 21
1.89985985157361
 31
0.0
210
0.0
220
0.0
230
1.0
 40
0.5263546146162956
 41
3.141592653589793
 42
4.712388980384689
  0
LINE
  5
15E
330
94
100
AcDbEntity
  8
0
  6
Continuous
 62
     7
370
     0
100
AcDbLine
 10
68.70729234815931
 20
183.7091109020263
 30
0.0
 11
68.70729234815931
 21
175.7920130311201
 31
0.0
  0
ELLIPSE
  5
15F
330
94
100
AcDbEntity
  8
0
  6
Continuous
 62
     7
370
     0
100
AcDbEllipse
 10
73.20729234815932
 20
175.79201303112
 30
0.0
 11
0.0000000000000025
 21
-1.89985985157361
 31
0.0
210
0.0
220
0.0
230
1.0
 40
0.5263546146162956
 41
4.712388980384688
 42
6.283185307179586
  0
LINE
  5
160
330
94
100
AcDbEntity
  8
0
  6
Continuous
 62
     7
370
     0
100
AcDbLine
 10
68.70729234815931
 20
185.9088384059986
 30
0.0
 11
68.70729234815931
 21
185.8145293604914
 31
0.0
  0
LINE
  5
161
330
94
100
AcDbEntity
  8
0
  6
Continuous
 62
     7
370
     0
100
AcDbLine
 10
67.70729234815931
 20
173.8921531795465
 30
0.0
 11
67.70729234815931
 21
183.18275628741
 31
0.0
  0
LINE
  5
162
330
94
100
AcDbEntity
  8
0
  6
Continuous
 62
     7
370
     0
100
AcDbLine
 10
73.2072923481593
 20
184.3921531795464
 30
0.0
 11
73.20729234815932
 21
173.8921531795464
 31
0.0
  0
ELLIPSE
  5
163
330
94
100
AcDbEntity
  8
0
  6
Continuous
 62
     7
370
     0
100
AcDbEllipse
 10
74.20729234815929
 20
175.79201303112
 30
0.0
 11
0.0000000000000025
 21
1.89985985157361
 31
0.0
210
0.0
220
0.0
230
1.0
 40
0.5263546146162956
 41
3.141592653589793
 42
4.71238898038469
  0
LINE
  5
164
330
94
100
AcDbEntity
  8
0
  6
Continuous
 62
     7
370
     0
100
AcDbLine
 10
74.20729234815929
 20
173.8921531795465
 30
0.0
 11
74.20729234815931
 21
184.3921531795465
 31
0.0
  0
ELLIPSE
  5
165
330
94
100
AcDbEntity
  8
0
  6
Continuous
 62
     7
370
     0
100
AcDbEllipse
 10
74.20729234815931
 20
186.2920130311201
 30
0.0
 11
0.0000000000000025
 21
1.89985985157361
 31
0.0
210
0.0
220
0.0
230
1.0
 40
0.5263546146162956
 41
3.141592653589795
 42
3.301227813339803
  0
LINE
  5
166
330
94
100
AcDbEntity
  8
0
  6
Continuous
 62
     7
370
     0
100
AcDbLine
 10
75.20729234815931
 20
184.518033504897
 30
0.0
 11
75.2072923481593
 21
175.79201303112
 31
0.0
  0
LINE
  5
167
330
94
100
AcDbEntity
  8
0
  6
Continuous
 62
     7
370
     0
100
AcDbLine
 10
80.70729234815932
 20
185.8145293604914
 30
0.0
 11
80.70729234815932
 21
187.7352989300541
 31
0.0
  0
LINE
  5
168
330
94
100
AcDbEntity
  8
0
  6
Continuous
 62
     7
370
     0
100
AcDbLine
 10
81.70729234815929
 20
189.2690475539288
 30
0.0
 11
81.70729234815929
 21
185.8145293604914
 31
0.0
  0
LINE
  5
169
330
94
100
AcDbEntity
  8
0
  6
Continuous
 62
     7
370
     0
100
AcDbLine
 10
80.70729234815932
 20
173.8921531795465
 30
0.0
 11
80.70729234815933
 21
183.18275628741
 31
0.0
  0
ELLIPSE
  5
16A
330
94
100
AcDbEntity
  8
0
  6
Continuous
 62
     7
370
     0
100
AcDbEllipse
 10
80.70729234815932
 20
175.79201303112
 30
0.0
 11
0.0000000000000009
 21
-1.89985985157361
 31
0.0
210
0.0
220
0.0
230
1.0
 40
0.5263546146162956
 41
0.0
 42
1.570796326794896
  0
LINE
  5
16B
330
94
100
AcDbEntity
  8
0
  6
Continuous
 62
     7
370
     0
100
AcDbLine
 10
81.70729234815929
 20
183.7091109020263
 30
0.0
 11
81.70729234815929
 21
175.7920130311201
 31
0.0
  0
ELLIPSE
  5
16C
330
94
100
AcDbEntity
  8
0
  6
Continuous
 62
     7
370
     0
100
AcDbEllipse
 10
66.70729234815931
 20
175.79201303112
 30
0.0
 11
0.0
 21
1.89985985157361
 31
0.0
210
0.0
220
0.0
230
1.0
 40
0.5263546146162956
 41
1.570796326794896
 42
3.141592653589793
  0
LINE
  5
16D
330
94
100
AcDbEntity
  8
0
  6
Continuous
 62
     7
370
     0
100
AcDbLine
 10
66.70729234815931
 20
187.7352989300541
 30
0.0
 11
66.70729234815931
 21
185.8145293604914
 31
0.0
  0
LINE
  5
16E
330
94
100
AcDbEntity
  8
0
  6
Continuous
 62
     7
370
     0
100
AcDbLine
 10
65.70729234815932
 20
185.8145293604914
 30
0.0
 11
65.70729234815932
 21
189.2690475539288
 31
0.0
  0
LINE
  5
16F
330
94
100
AcDbEntity
  8
0
  6
Continuous
 62
     7
370
     0
100
AcDbLine
 10
66.70729234815931
 20
183.18275628741
 30
0.0
 11
66.70729234815931
 21
173.8921531795465
 31
0.0
  0
LINE
  5
170
330
94
100
AcDbEntity
  8
0
  6
Continuous
 62
     7
370
     0
100
AcDbLine
 10
65.70729234815932
 20
175.79201303112
 30
0.0
 11
65.70729234815932
 21
183.7091109020262
 31
0.0
  0
CIRCLE
  5
171
330
94
100
AcDbEntity
  8
0
  6
Continuous
 62
     7
370
     0
100
AcDbCircle
 10
73.70729234815931
 20
193.3921531795465
 30
0.0
 40
9.000000000000001
  0
LINE
  5
172
330
94
100
AcDbEntity
  8
0
  6
HIDDEN2
 62
     7
370
     0
100
AcDbLine
 10
82.70729234815931
 20
181.8921531795464
 30
0.0
 11
82.70729234815931
 21
197.08623306302
 31
0.0
  0
LINE
  5
173
330
94
100
AcDbEntity
  8
0
  6
HIDDEN2
 62
     7
370
     0
100
AcDbLine
 10
97.70729234815931
 20
181.8921531795464
 30
0.0
 11
82.70729234815931
 21
181.8921531795464
 31
0.0
  0
LINE
  5
174
330
94
100
AcDbEntity
  8
0
  6
HIDDEN2
 62
     7
370
     0
100
AcDbLine
 10
64.70729234815931
 20
181.8921531795464
 30
0.0
 11
64.70729234815931
 21
197.08623306302
 31
0.0
  0
LINE
  5
175
330
94
100
AcDbEntity
  8
0
  6
HIDDEN2
 62
     7
370
     0
100
AcDbLine
 10
49.7072923481593
 20
181.8921531795464
 30
0.0
 11
64.70729234815931
 21
181.8921531795464
 31
0.0
  0
LINE
  5
176
330
94
100
AcDbEntity
  8
0
  6
HIDDEN2
 62
     7
370
     0
100
AcDbLine
 10
82.70729234815931
 20
181.8921531795464
 30
0.0
 11
64.70729234815931
 21
181.8921531795464
 31
0.0
  0
LINE
  5
177
330
94
100
AcDbEntity
  8
0
  6
Continuous
 62
     7
370
     0
100
AcDbLine
 10
66.70729234815931
 20
173.8921531795465
 30
0.0
 11
49.70729234815931
 21
173.8921531795465
 31
0.0
  0
LINE
  5
178
330
94
100
AcDbEntity
  8
0
  6
Continuous
 62
     7
370
     0
100
AcDbLine
 10
49.7072923481593
 20
173.8921531795465
 30
0.0
 11
49.7072923481593
 21
181.8921531795465
 31
0.0
  0
LINE
  5
179
330
94
100
AcDbEntity
  8
0
  6
Continuous
 62
     7
370
     0
100
AcDbLine
 10
49.7072923481593
 20
181.8921531795464
 30
0.0
 11
67.30255769827831
 21
199.7150776662546
 31
0.0
  0
LINE
  5
17A
330
94
100
AcDbEntity
  8
0
  6
Continuous
 62
     7
370
     0
100
AcDbLine
 10
74.20729234815929
 20
173.8921531795465
 30
0.0
 11
73.20729234815932
 21
173.8921531795465
 31
0.0
  0
LINE
  5
17B
330
94
100
AcDbEntity
  8
0
  6
Continuous
 62
     7
370
     0
100
AcDbLine
 10
80.11202699804028
 20
199.7150776662546
 30
0.0
 11
97.70729234815931
 21
181.8921531795464
 31
0.0
  0
LINE
  5
17C
330
94
100
AcDbEntity
  8
0
  6
Continuous
 62
     7
370
     0
100
AcDbLine
 10
97.70729234815931
 20
181.8921531795464
 30
0.0
 11
97.70729234815931
 21
173.8921531795464
 31
0.0
  0
LINE
  5
17D
330
94
100
AcDbEntity
  8
0
  6
Continuous
 62
     7
370
     0
100
AcDbLine
 10
97.70729234815931
 20
173.8921531795465
 30
0.0
 11
80.70729234815932
 21
173.8921531795465
 31
0.0
  0
LINE
  5
17E
330
94
100
AcDbEntity
  8
0
  6
Continuous
 62
     7
370
     0
100
AcDbLine
 10
74.20729234815931
 20
184.3921531795464
 30
0.0
 11
73.7072923481593
 21
184.3921531795464
 31
0.0
  0
LINE
  5
17F
330
94
100
AcDbEntity
  8
0
  6
Continuous
 62
     7
370
     0
100
AcDbLine
 10
73.2072923481593
 20
184.3921531795464
 30
0.0
 11
73.7072923481593
 21
184.3921531795464
 31
0.0
  0
LINE
  5
180
330
94
100
AcDbEntity
  8
0
  6
Continuous
 62
     7
370
     0
100
AcDbLine
 10
67.70729234815931
 20
173.8921531795465
 30
0.0
 11
66.70729234815931
 21
173.8921531795465
 31
0.0
  0
LINE
  5
181
330
94
100
AcDbEntity
  8
0
  6
Continuous
 62
     7
370
     0
100
AcDbLine
 10
80.70729234815932
 20
173.8921531795465
 30
0.0
 11
79.70729234815931
 21
173.8921531795465
 31
0.0
  0
LINE
  5
182
330
94
100
AcDbEntity
  8
0
  6
Continuous
 62
     7
370
     0
100
AcDbLine
 10
78.70729234815931
 20
185.8145293604914
 30
0.0
 11
78.70729234815931
 21
185.9088384059986
 31
0.0
  0
LINE
  5
183
330
94
100
AcDbEntity
  8
0
  6
Continuous
 62
     7
370
     0
100
AcDbLine
 10
73.20729234815932
 20
173.8921531795465
 30
0.0
 11
67.70729234815931
 21
173.8921531795465
 31
0.0
  0
LINE
  5
184
330
94
100
AcDbEntity
  8
0
  6
Continuous
 62
     7
370
     0
100
AcDbLine
 10
74.20729234815929
 20
173.8921531795465
 30
0.0
 11
79.7072923481593
 21
173.8921531795465
 31
0.0
  0
LINE
  5
185
330
94
100
AcDbEntity
  8
0
  6
Continuous
 62
     7
370
     0
100
AcDbLine
 10
67.70729234815931
 20
183.18275628741
 30
0.0
 11
67.70729234815931
 21
185.8145293604914
 31
0.0
  0
ELLIPSE
  5
186
330
94
100
AcDbEntity
  8
0
  6
Continuous
 62
     7
370
     0
100
AcDbEllipse
 10
79.7072923481593
 20
175.79201303112
 30
0.0
 11
-0.0000000000000022
 21
-1.89985985157361
 31
0.0
210
0.0
220
0.0
230
1.0
 40
0.5263546146162956
 41
4.712388980384689
 42
6.283185307179586
  0
LINE
  5
187
330
94
100
AcDbEntity
  8
0
  6
HIDDEN2
 62
     7
370
     0
100
AcDbLine
 10
52.20729234815929
 20
181.8921531795464
 30
0.0
 11
52.20729234815929
 21
180.8921531795464
 31
0.0
  0
LINE
  5
188
330
94
100
AcDbEntity
  8
0
  6
HIDDEN2
 62
     7
370
     0
100
AcDbLine
 10
60.45729234815929
 20
173.8921531795465
 30
0.0
 11
60.45729234815929
 21
180.8921531795465
 31
0.0
  0
LINE
  5
189
330
94
100
AcDbEntity
  8
0
  6
HIDDEN2
 62
     7
370
     0
100
AcDbLine
 10
84.20729234815931
 20
181.8921531795464
 30
0.0
 11
84.20729234815931
 21
180.8921531795464
 31
0.0
  0
LINE
  5
18A
330
94
100
AcDbEntity
  8
0
  6
HIDDEN2
 62
     7
370
     0
100
AcDbLine
 10
92.45729234815931
 20
173.8921531795465
 30
0.0
 11
92.45729234815931
 21
180.8921531795465
 31
0.0
  0
LINE
  5
18B
330
94
100
AcDbEntity
  8
0
  6
Continuous
 62
     7
370
     0
100
AcDbLine
 10
78.70729234815931
 20
185.8145293604914
 30
0.0
 11
79.70729234815931
 21
185.8145293604914
 31
0.0
  0
LINE
  5
18C
330
94
100
AcDbEntity
  8
0
  6
Continuous
 62
     7
370
     0
100
AcDbLine
 10
79.70729234815931
 20
185.8145293604914
 30
0.0
 11
80.7072923481593
 21
185.8145293604914
 31
0.0
  0
ELLIPSE
  5
18D
330
94
100
AcDbEntity
  8
0
  6
Continuous
 62
     7
370
     0
100
AcDbEllipse
 10
80.70729234815932
 20
183.7091109020263
 30
0.0
 11
0.999999999999987
 21
0.0000000000000035
 31
0.0
210
0.0
220
0.0
230
1.0
 40
0.5263546146162988
 41
4.712388980384687
 42
6.283185307179586
  0
LINE
  5
18E
330
94
100
AcDbEntity
  8
0
  6
HIDDEN2
 62
     7
370
     0
100
AcDbLine
 10
63.20729234815931
 20
180.8921531795464
 30
0.0
 11
63.20729234815931
 21
181.8921531795464
 31
0.0
  0
LINE
  5
18F
330
94
100
AcDbEntity
  8
0
  6
HIDDEN2
 62
     7
370
     0
100
AcDbLine
 10
54.9572923481593
 20
180.8921531795465
 30
0.0
 11
54.9572923481593
 21
173.8921531795465
 31
0.0
  0
LINE
  5
190
330
94
100
AcDbEntity
  8
0
  6
HIDDEN2
 62
     7
370
     0
100
AcDbLine
 10
95.20729234815929
 20
180.8921531795464
 30
0.0
 11
95.20729234815929
 21
181.8921531795464
 31
0.0
  0
LINE
  5
191
330
94
100
AcDbEntity
  8
0
  6
HIDDEN2
 62
     7
370
     0
100
AcDbLine
 10
86.9572923481593
 20
180.8921531795465
 30
0.0
 11
86.9572923481593
 21
173.8921531795465
 31
0.0
  0
ENDBLK
  5
2FB
330
94
100
AcDbEntity
  8
0
370
     0
100
AcDbBlockEnd
  0
BLOCK
  5
1E3
330
9B
100
AcDbEntity
  8
0
 62
     1
 48
0.0
370
     0
100
AcDbBlockBegin
  2
SE6
 70
     0
 10
0.0
 20
0.0
 30
0.0
  3
SE6
  1

  0
ENDBLK
  5
1E4
330
9B
100
AcDbEntity
  8
0
 62
     1
 48
0.0
370
     0
100
AcDbBlockEnd
  0
BLOCK
  5
195
330
9C
100
AcDbEntity
  8
0
 62
     1
 48
0.0
370
     0
100
AcDbBlockBegin
  2
SE7
 70
     0
 10
0.0
 20
0.0
 30
0.0
  3
SE7
  1

  0
LINE
  5
196
330
9C
100
AcDbEntity
  8
DV4_0
  6
Continuous
 62
     7
370
     0
100
AcDbLine
 10
75.52962281849601
 20
111.8162488005233
 30
0.0
 11
76.23672959968256
 21
111.4080005100595
 31
0.0
  0
LINE
  5
197
330
9C
100
AcDbEntity
  8
0
  6
Continuous
 62
     7
370
     0
100
AcDbLine
 10
74.37276856900324
 20
107.2812646318628
 30
0.0
 11
77.28752914307569
 21
111.0352874210831
 31
0.0
  0
ELLIPSE
  5
198
330
9C
100
AcDbEntity
  8
0
  6
Continuous
 62
     7
370
     0
100
AcDbEllipse
 10
53.86667191459334
 20
112.2620082062332
 30
0.0
 11
5.500000000000003
 21
-0.0000000000000024
 31
0.0
210
0.0
220
0.0
230
1.0
 40
0.5773502691895585
 41
0.9251960442830602
 42
4.719623737748681
  0
ELLIPSE
  5
199
330
9C
100
AcDbEntity
  8
0
  6
Continuous
 62
     7
370
     0
100
AcDbEllipse
 10
80.73672959968218
 20
119.2022291441197
 30
0.0
 11
1.999999999999826
 21
3.464101615137853
 31
0.0
210
0.0
220
0.0
230
1.0
 40
0.5773502691896593
 41
0.0
 42
6.283185307179586
  0
ELLIPSE
  5
19A
330
9C
100
AcDbEntity
  8
0
  6
Continuous
 62
     7
370
     0
100
AcDbEllipse
 10
53.86667191459335
 20
111.4455116253054
 30
0.0
 11
-5.500000000000001
 21
0.0000000000000056
 31
0.0
210
0.0
220
0.0
230
1.0
 40
0.5773502691895591
 41
4.150874508021869
 42
6.154263604120741
  0
ELLIPSE
  5
19B
330
9C
100
AcDbEntity
  8
0
  6
Continuous
 62
     7
370
     0
100
AcDbEllipse
 10
53.86667191459335
 20
111.4455116253054
 30
0.0
 11
-2.75
 21
0.0000000000000014
 31
0.0
210
0.0
220
0.0
230
1.0
 40
0.5773502691895594
 41
0.0
 42
1.752192717420653
  0
ELLIPSE
  5
19C
330
9C
100
AcDbEntity
  8
0
  6
Continuous
 62
     7
370
     0
100
AcDbEllipse
 10
53.86667191459335
 20
111.4455116253054
 30
0.0
 11
-2.75
 21
0.0000000000000014
 31
0.0
210
0.0
220
0.0
230
1.0
 40
0.5773502691895594
 41
3.892627064611086
 42
6.283185307179586
  0
ELLIPSE
  5
19D
330
9C
100
AcDbEntity
  8
0
  6
Continuous
 62
     7
370
     0
100
AcDbEllipse
 10
71.54434144425716
 20
112.6068769138405
 30
0.0
 11
2.49999999999967
 21
-4.330127018922207
 31
0.0
210
0.0
220
0.0
230
0.9999999999999998
 40
0.5773502691896674
 41
0.2310906671959961
 42
0.7853981633975558
  0
LINE
  5
19E
330
9C
100
AcDbEntity
  8
0
  6
Continuous
 62
     7
370
     0
100
AcDbLine
 10
83.74287085482999
 20
114.02967451104
 30
0.0
 11
79.67606942790235
 21
108.7918977372896
 31
0.0
  0
ELLIPSE
  5
19F
330
9C
100
AcDbEntity
  8
0
  6
Continuous
 62
     7
370
     0
100
AcDbEllipse
 10
80.73672959968204
 20
117.9141046898704
 30
0.0
 11
2.499999999999939
 21
-4.330127018922539
 31
0.0
210
0.0
220
0.0
230
1.0
 40
0.5773502691896396
 41
0.2310906671959699
 42
0.5607672345119033
  0
LINE
  5
1A0
330
9C
100
AcDbEntity
  8
0
  6
Continuous
 62
     7
370
     0
100
AcDbLine
 10
78.96896264671579
 20
109.9348785198776
 30
0.0
 11
80.26190229444287
 21
111.6001010241989
 31
0.0
  0
ELLIPSE
  5
1A1
330
9C
100
AcDbEntity
  8
0
  6
Continuous
 62
     7
370
     0
100
AcDbEllipse
 10
81.44383638086848
 20
118.3223529803342
 30
0.0
 11
2.500000000000048
 21
-4.330127018922508
 31
0.0
210
0.0
220
0.0
230
1.0
 40
0.577350269189649
 41
0.2310906671959602
 42
0.7585987638851171
  0
ELLIPSE
  5
1A2
330
9C
100
AcDbEntity
  8
0
  6
Continuous
 62
     7
370
     0
100
AcDbEllipse
 10
83.1416426038004
 20
114.806560546806
 30
0.0
 11
0.7898653305191689
 21
-0.6132803271293151
 31
0.0
210
0.0
220
0.0
230
0.9999999999999998
 40
0.7947917897606626
 41
5.41181251602758
 42
5.969939109929025
  0
LINE
  5
1A3
330
9C
100
AcDbEntity
  8
0
  6
Continuous
 62
     7
370
     0
100
AcDbLine
 10
84.44997763601653
 20
114.4379228015038
 30
0.0
 11
83.74287085482997
 21
114.02967451104
 31
0.0
  0
ELLIPSE
  5
1A4
330
9C
100
AcDbEntity
  8
0
  6
Continuous
 62
     7
370
     0
100
AcDbEllipse
 10
74.37276856900324
 20
110.9738837519853
 30
0.0
 11
-0.9999999999999966
 21
-0.0000000000000043
 31
0.0
210
0.0
220
0.0
230
1.0
 40
0.5773502691895595
 41
0.7853981633974343
 42
2.356194490192333
  0
LINE
  5
1A5
330
9C
100
AcDbEntity
  8
0
  6
Continuous
 62
     7
370
     0
100
AcDbLine
 10
75.07987535018978
 20
110.5656354615215
 30
0.0
 11
75.78698213137632
 21
110.9738837519853
 31
0.0
  0
LINE
  5
1A6
330
9C
100
AcDbEntity
  8
0
  6
Continuous
 62
     7
370
     0
100
AcDbLine
 10
75.25758948059142
 20
109.1306950254742
 30
0.0
 11
74.55048269940487
 21
108.7224467350104
 31
0.0
  0
ELLIPSE
  5
1A7
330
9C
100
AcDbEntity
  8
0
  6
Continuous
 62
     7
370
     0
100
AcDbEllipse
 10
74.65636122956185
 20
109.9075810612402
 30
0.0
 11
-0.7898653305191541
 21
0.6132803271293392
 31
0.0
210
0.0
220
0.0
230
1.0
 40
0.7947917897606715
 41
2.828346456339237
 42
3.142106988255659
  0
ELLIPSE
  5
1A8
330
9C
100
AcDbEntity
  8
0
  6
Continuous
 62
     7
370
     0
100
AcDbEllipse
 10
84.2722635056149
 20
116.6893598184788
 30
0.0
 11
-0.9999999999999989
 21
0.0000000000000013
 31
0.0
210
0.0
220
0.0
230
1.0
 40
0.577350269189558
 41
2.531755187828997
 42
3.098326922338211
  0
LINE
  5
1A9
330
9C
100
AcDbEntity
  8
0
  6
Continuous
 62
     7
370
     0
100
AcDbLine
 10
74.55048269940485
 20
108.7224467350104
 30
0.0
 11
70.48368127247721
 21
103.48466996126
 31
0.0
  0
LINE
  5
1AA
330
9C
100
AcDbEntity
  8
0
  6
Continuous
 62
     7
370
     0
100
AcDbLine
 10
58.46286599230593
 20
103.0764216707973
 30
0.0
 11
52.45245835222028
 21
106.5465321397398
 31
0.0
  0
ELLIPSE
  5
1AB
330
9C
100
AcDbEntity
  8
0
  6
Continuous
 62
     7
370
     0
100
AcDbEllipse
 10
70.83723466307057
 20
112.1986286233768
 30
0.0
 11
1.99999999999974
 21
-3.464101615137873
 31
0.0
210
0.0
220
0.0
230
1.0
 40
0.5773502691896551
 41
0.2310906671959907
 42
0.7853981633975482
  0
LINE
  5
1AC
330
9C
100
AcDbEntity
  8
0
  6
Continuous
 62
     7
370
     0
100
AcDbLine
 10
71.19078805366377
 20
103.8929182517238
 30
0.0
 11
75.25758948059141
 21
109.1306950254742
 31
0.0
  0
ELLIPSE
  5
1AD
330
9C
100
AcDbEntity
  8
0
  6
Continuous
 62
     7
370
     0
100
AcDbEllipse
 10
75.07987535018978
 20
107.6895129223266
 30
0.0
 11
0.2188426307738148
 21
1.601416652330388
 31
0.0
210
0.0
220
0.0
230
1.0
 40
0.4198718021168381
 41
1.88545320755505
 42
3.456249534349958
  0
LINE
  5
1AE
330
9C
100
AcDbEntity
  8
0
  6
Continuous
 62
     7
370
     0
100
AcDbLine
 10
78.94523484659885
 20
111.1166164667545
 30
0.0
 11
75.07987535018978
 21
106.1382838492748
 31
0.0
  0
LINE
  5
1AF
330
9C
100
AcDbEntity
  8
0
  6
Continuous
 62
     7
370
     0
100
AcDbLine
 10
75.78698213137633
 20
106.5465321397386
 30
0.0
 11
79.44829049267626
 21
111.26206011447
 31
0.0
  0
ELLIPSE
  5
1B0
330
9C
100
AcDbEntity
  8
0
  6
Continuous
 62
     7
370
     0
100
AcDbEllipse
 10
75.78698213137632
 20
108.0977612127904
 30
0.0
 11
0.2188426307738271
 21
1.601416652330394
 31
0.0
210
0.0
220
0.0
230
1.0
 40
0.4198718021168404
 41
3.456249534349947
 42
3.769495731600559
  0
ELLIPSE
  5
1B1
330
9C
100
AcDbEntity
  8
0
  6
Continuous
 62
     7
370
     0
100
AcDbEllipse
 10
80.38317620908889
 20
110.7513751008052
 30
0.0
 11
0.2188426307738344
 21
1.601416652330402
 31
0.0
210
0.0
220
0.0
230
1.0
 40
0.4198718021168316
 41
3.456249534349962
 42
3.769495731600567
  0
LINE
  5
1B2
330
9C
100
AcDbEntity
  8
0
  6
Continuous
 62
     7
370
     0
100
AcDbLine
 10
80.38317620908889
 20
109.2001460277534
 30
0.0
 11
84.44997763601653
 21
114.4379228015038
 31
0.0
  0
ELLIPSE
  5
1B3
330
9C
100
AcDbEntity
  8
0
  6
Continuous
 62
     7
370
     0
100
AcDbEllipse
 10
70.48368127247723
 20
105.0358990343118
 30
0.0
 11
0.2188426307738319
 21
1.601416652330401
 31
0.0
210
0.0
220
0.0
230
1.0
 40
0.4198718021168314
 41
1.88545320755507
 42
3.456249534349931
  0
SPLINE
  5
1B4
330
9C
100
AcDbEntity
  8
0
  6
Continuous
 62
     7
370
     0
100
AcDbSpline
210
0.0
220
0.0
230
1.0
 70
     8
 71
     3
 72
    23
 73
    19
 74
     0
 42
0.0000000001
 43
0.0000000001
 40
0.0
 40
0.0
 40
0.0
 40
0.0
 40
0.1250000000000004
 40
0.1250000000000004
 40
0.1250000000000004
 40
0.2500000000000009
 40
0.2500000000000009
 40
0.2500000000000009
 40
0.3750000000000013
 40
0.3750000000000013
 40
0.3750000000000013
 40
0.5000000000000018
 40
0.5000000000000018
 40
0.5000000000000018
 40
0.7500000000000009
 40
0.7500000000000009
 40
0.7500000000000009
 40
1.0
 40
1.0
 40
1.0
 40
1.0
 10
73.66566178781667
 20
113.3862377552159
 30
0.0
 10
73.73329591620123
 20
113.3471891729867
 30
0.0
 10
73.80858678101496
 20
113.2926523338352
 30
0.0
 10
73.88158099395656
 20
113.233988802503
 30
0.0
 10
73.95457520689814
 20
113.1753252711708
 30
0.0
 10
74.02639733957467
 20
113.112160923669
 30
0.0
 10
74.09428762601693
 20
113.0504649218784
 30
0.0
 10
74.16217791245921
 20
112.9887689200878
 30
0.0
 10
74.22798771109734
 20
112.9268094885786
 30
0.0
 10
74.29082375865045
 20
112.8670743283711
 30
0.0
 10
74.35365980620357
 20
112.8073391681637
 30
0.0
 10
74.41378543210669
 20
112.7495480457511
 30
0.0
 10
74.47213355840817
 20
112.6935923035573
 30
0.0
 10
74.58882981101114
 20
112.5816808191695
 30
0.0
 10
74.69934048330587
 20
112.4763812413873
 30
0.0
 10
74.80090467179803
 20
112.3825525473257
 30
0.0
 10
74.90246886029017
 20
112.2887238532641
 30
0.0
 10
74.99601671882986
 20
112.2053444445566
 30
0.0
 10
75.07987535018978
 20
112.1339372478195
 30
0.0
  0
LINE
  5
1B5
330
9C
100
AcDbEntity
  8
0
  6
Continuous
 62
     7
370
     0
100
AcDbLine
 10
58.46286599230591
 20
96.54444902337516
 30
0.0
 11
42.5529634156086
 21
105.730035558811
 31
0.0
  0
LINE
  5
1B6
330
9C
100
AcDbEntity
  8
0
  6
Continuous
 62
     7
370
     0
100
AcDbLine
 10
75.07987535018978
 20
112.1339372478195
 30
0.0
 11
75.07987535018978
 21
110.5656354615215
 31
0.0
  0
LINE
  5
1B7
330
9C
100
AcDbEntity
  8
0
  6
Continuous
 62
     7
370
     0
100
AcDbLine
 10
73.66566178781669
 20
110.5656354615215
 30
0.0
 11
73.66566178781667
 21
113.3862377552159
 31
0.0
  0
LINE
  5
1B8
330
9C
100
AcDbEntity
  8
0
  6
Continuous
 62
     7
370
     0
100
AcDbLine
 10
69.77657449129068
 20
104.627650743848
 30
0.0
 11
73.24214766718874
 21
109.0910844803126
 31
0.0
  0
LINE
  5
1B9
330
9C
100
AcDbEntity
  8
0
  6
Continuous
 62
     7
370
     0
100
AcDbLine
 10
75.78698213137633
 20
110.9738837519853
 30
0.0
 11
75.78698213137633
 21
111.6676623319534
 31
0.0
  0
ELLIPSE
  5
1BA
330
9C
100
AcDbEntity
  8
0
  6
Continuous
 62
     7
370
     0
100
AcDbEllipse
 10
73.94925444837529
 20
109.4993327707764
 30
0.0
 11
0.7898653305191714
 21
-0.6132803271293194
 31
0.0
210
0.0
220
0.0
230
1.0
 40
0.7947917897606665
 41
4.399142783134084
 42
5.969939109928997
  0
ELLIPSE
  5
1BB
330
9C
100
AcDbEntity
  8
0
  6
Continuous
 62
     7
370
     0
100
AcDbEllipse
 10
71.19078805366377
 20
105.4441473247756
 30
0.0
 11
0.2188426307738222
 21
1.601416652330395
 31
0.0
210
0.0
220
0.0
230
1.0
 40
0.4198718021168414
 41
3.456249534349943
 42
3.769495731600546
  0
ELLIPSE
  5
1BC
330
9C
100
AcDbEntity
  8
0
  6
Continuous
 62
     7
370
     0
100
AcDbEllipse
 10
75.07987535018976
 20
111.3821320424491
 30
0.0
 11
-1.000000000000011
 21
-0.0000000000000002
 31
0.0
210
0.0
220
0.0
230
1.0
 40
0.5773502691895537
 41
2.356194490192361
 42
3.141592653589793
  0
LINE
  5
1BD
330
9C
100
AcDbEntity
  8
0
  6
Continuous
 62
     7
370
     0
100
AcDbLine
 10
70.90459743815175
 20
124.8120155757717
 30
0.0
 11
59.94444232976027
 21
131.1398640779609
 31
0.0
  0
ELLIPSE
  5
1BE
330
9C
100
AcDbEntity
  8
0
  6
Continuous
 62
     7
370
     0
100
AcDbEllipse
 10
80.73672959968218
 20
119.2022291441197
 30
0.0
 11
4.499999999999613
 21
7.794228634060181
 31
0.0
210
0.0
220
0.0
230
1.0
 40
0.5773502691896589
 41
0.0
 42
6.283185307179586
  0
LINE
  5
1BF
330
9C
100
AcDbEntity
  8
0
  6
Continuous
 62
     7
370
     0
100
AcDbLine
 10
42.55296341560859
 20
112.2620082062332
 30
0.0
 11
42.55296341560859
 21
105.730035558811
 31
0.0
  0
LINE
  5
1C0
330
9C
100
AcDbEntity
  8
0
  6
Continuous
 62
     7
370
     0
100
AcDbLine
 10
58.10931260171264
 20
121.2434705964372
 30
0.0
 11
42.55296341560859
 21
112.2620082062332
 31
0.0
  0
LINE
  5
1C1
330
9C
100
AcDbEntity
  8
0
  6
Continuous
 62
     7
370
     0
100
AcDbLine
 10
63.05906007001848
 20
125.0761707718966
 30
0.0
 11
52.45245835222027
 21
106.5465321397398
 31
0.0
  0
LINE
  5
1C2
330
9C
100
AcDbEntity
  8
0
  6
Continuous
 62
     7
370
     0
100
AcDbLine
 10
63.05906007001848
 20
125.0761707718966
 30
0.0
 11
58.10931260171264
 21
127.9339088051433
 31
0.0
  0
LINE
  5
1C3
330
9C
100
AcDbEntity
  8
0
  6
Continuous
 62
     7
370
     0
100
AcDbLine
 10
52.45245835222028
 20
106.5465321397398
 30
0.0
 11
42.5529634156086
 21
112.2620082062332
 31
0.0
  0
LINE
  5
1C4
330
9C
100
AcDbEntity
  8
0
  6
Continuous
 62
     7
370
     0
100
AcDbLine
 10
58.10931260171264
 20
127.9339088051433
 30
0.0
 11
59.94444232976027
 21
131.1398640779609
 31
0.0
  0
ELLIPSE
  5
1C5
330
9C
100
AcDbEntity
  8
0
  6
Continuous
 62
     7
370
     0
100
AcDbEllipse
 10
64.47327363239155
 20
128.5919398247875
 30
0.0
 11
-4.49999999999963
 21
-7.794228634060161
 31
0.0
210
0.0
220
0.0
230
1.0
 40
0.5773502691896581
 41
3.141592653589793
 42
4.718816638105119
  0
LINE
  5
1C6
330
9C
100
AcDbEntity
  8
0
  6
Continuous
 62
     7
370
     0
100
AcDbLine
 10
58.10931260171265
 20
116.4290060768901
 30
0.0
 11
58.10931260171264
 21
127.9339088051433
 31
0.0
  0
LINE
  5
1C7
330
9C
100
AcDbEntity
  8
0
  6
Continuous
 62
     7
370
     0
100
AcDbLine
 10
58.46286599230593
 20
103.0764216707973
 30
0.0
 11
70.90459743815177
 21
124.8120155757717
 31
0.0
  0
LINE
  5
1C8
330
9C
100
AcDbEntity
  8
0
  6
Continuous
 62
     7
370
     0
100
AcDbLine
 10
69.77657449129068
 20
115.6316033527669
 30
0.0
 11
69.77657449129068
 21
104.627650743848
 31
0.0
  0
LINE
  5
1C9
330
9C
100
AcDbEntity
  8
0
  6
Continuous
 62
     7
370
     0
100
AcDbLine
 10
70.48368127247723
 20
103.48466996126
 30
0.0
 11
58.46286599230592
 21
96.54444902337516
 31
0.0
  0
LINE
  5
1CA
330
9C
100
AcDbEntity
  8
0
  6
Continuous
 62
     7
370
     0
100
AcDbLine
 10
58.46286599230591
 20
96.54444902337516
 30
0.0
 11
58.46286599230592
 21
103.0764216707973
 31
0.0
  0
ELLIPSE
  5
1CB
330
9C
100
AcDbEntity
  8
0
  6
Continuous
 62
     7
370
     0
100
AcDbEllipse
 10
75.43342874078307
 20
122.2640913225983
 30
0.0
 11
-4.499999999999605
 21
-7.794228634060178
 31
0.0
210
0.0
220
0.0
230
0.9999999999999998
 40
0.5773502691896595
 41
4.718816638105113
 42
5.973669393442465
  0
LINE
  5
1CC
330
9C
100
AcDbEntity
  8
0
  6
Continuous
 62
     7
370
     0
100
AcDbLine
 10
69.77657449129068
 20
115.6316033527669
 30
0.0
 11
73.66566178781669
 21
113.3862377552159
 31
0.0
  0
LINE
  5
1CD
330
9C
100
AcDbEntity
  8
0
  6
Continuous
 62
     7
370
     0
100
AcDbLine
 10
92.40399148926021
 20
122.6723396130605
 30
0.0
 11
92.40399148926021
 21
116.1403669656383
 31
0.0
  0
LINE
  5
1CE
330
9C
100
AcDbEntity
  8
0
  6
Continuous
 62
     7
370
     0
100
AcDbLine
 10
85.78052475868458
 20
126.5953563365803
 30
0.0
 11
92.40399148926019
 21
122.6723396130605
 31
0.0
  0
LINE
  5
1CF
330
9C
100
AcDbEntity
  8
0
  6
Continuous
 62
     7
370
     0
100
AcDbLine
 10
92.40399148926021
 20
116.1403669656383
 30
0.0
 11
80.38317620908889
 21
109.2001460277534
 31
0.0
  0
LINE
  5
1D0
330
9C
100
AcDbEntity
  8
0
  6
Continuous
 62
     7
370
     0
100
AcDbLine
 10
75.78698213137633
 20
106.5465321397386
 30
0.0
 11
75.0798753501898
 21
106.1382838492748
 31
0.0
  0
ELLIPSE
  5
1D1
330
9C
100
AcDbEntity
  8
0
  6
Continuous
 62
     7
370
     0
100
AcDbEllipse
 10
80.02962281854944
 20
119.6104774346727
 30
0.0
 11
4.500000000054358
 21
7.794228634148837
 31
0.0
210
0.0
220
0.0
230
1.0
 40
0.577350269186292
 41
3.035868309101321
 42
3.141592653589793
  0
LINE
  5
1D2
330
9C
100
AcDbEntity
  8
0
  6
Continuous
 62
     7
370
     0
100
AcDbLine
 10
71.19078805366377
 20
103.8929182517238
 30
0.0
 11
70.48368127247721
 21
103.48466996126
 31
0.0
  0
LINE
  5
1D3
330
9C
100
AcDbEntity
  8
0
  6
Continuous
 62
     7
370
     0
100
AcDbLine
 10
80.38317620908889
 20
109.2001460277534
 30
0.0
 11
79.67606942790233
 21
108.7918977372896
 31
0.0
  0
LINE
  5
1D4
330
9C
100
AcDbEntity
  8
0
  6
Continuous
 62
     7
370
     0
100
AcDbLine
 10
74.37276856900324
 20
107.911756384629
 30
0.0
 11
74.37276856900324
 21
107.2812646318628
 31
0.0
  0
LINE
  5
1D5
330
9C
100
AcDbEntity
  8
0
  6
Continuous
 62
     7
370
     0
100
AcDbLine
 10
75.07987535018978
 20
106.1382838492748
 30
0.0
 11
71.19078805366377
 21
103.8929182517238
 31
0.0
  0
LINE
  5
1D6
330
9C
100
AcDbEntity
  8
0
  6
Continuous
 62
     7
370
     0
100
AcDbLine
 10
75.78698213137633
 20
106.5465321397386
 30
0.0
 11
79.67606942790235
 21
108.7918977372896
 31
0.0
  0
ELLIPSE
  5
1D7
330
9C
100
AcDbEntity
  8
0
  6
Continuous
 62
     7
370
     0
100
AcDbEllipse
 10
72.25144822544365
 20
113.0151252043043
 30
0.0
 11
2.499999999999732
 21
-4.330127018922157
 31
0.0
210
0.0
220
0.0
230
1.0
 40
0.5773502691896698
 41
0.231090667195983
 42
0.7853981633975428
  0
ELLIPSE
  5
1D8
330
9C
100
AcDbEntity
  8
0
  6
Continuous
 62
     7
370
     0
100
AcDbEllipse
 10
79.67606942790233
 20
110.3431268103414
 30
0.0
 11
0.2188426307738295
 21
1.601416652330403
 31
0.0
210
0.0
220
0.0
230
0.9999999999999998
 40
0.4198718021168299
 41
1.88545320755506
 42
3.456249534349961
  0
LINE
  5
1D9
330
9C
100
AcDbEntity
  8
0
  6
Continuous
 62
     7
370
     0
100
AcDbLine
 10
78.96896264671579
 20
109.9348785198776
 30
0.0
 11
78.96896264671579
 21
110.5653702726438
 31
0.0
  0
ELLIPSE
  5
1DA
330
9C
100
AcDbEntity
  8
0
  6
Continuous
 62
     7
370
     0
100
AcDbEllipse
 10
83.84874938498695
 20
115.2148088372698
 30
0.0
 11
-0.789865330519164
 21
0.6132803271293207
 31
0.0
210
0.0
220
0.0
230
1.0
 40
0.7947917897606734
 41
2.828346456339223
 42
3.142106988238391
  0
LINE
  5
1DB
330
9C
100
AcDbEntity
  8
0
  6
Continuous
 62
     7
370
     0
100
AcDbLine
 10
85.23672959968179
 20
126.9964577781799
 30
0.0
 11
68.9732736323912
 21
136.3861684588476
 31
0.0
  0
LINE
  5
1DC
330
9C
100
AcDbEntity
  8
0
  6
Continuous
 62
     7
370
     0
100
AcDbLine
 10
71.40868193794496
 20
104.0942048295559
 30
0.0
 11
75.446226560081
 21
109.2943007341109
 31
0.0
  0
ARC
  5
1DD
330
9C
100
AcDbEntity
  8
0
  6
Continuous
 62
     7
370
     0
100
AcDbCircle
 10
72.71933009440394
 20
111.261973989351
 30
0.0
 40
3.362692726656582
100
AcDbArc
 50
324.1865468115957
 51
2.04776819651548
  0
ARC
  5
1DE
330
9C
100
AcDbEntity
  8
0
  6
Continuous
 62
     7
370
     0
100
AcDbCircle
 10
81.91171824982921
 20
116.5692017653805
 30
0.0
 40
3.362692726656431
100
AcDbArc
 50
324.186546811595
 51
2.047768196516776
  0
LINE
  5
1DF
330
9C
100
AcDbEntity
  8
0
  6
Continuous
 62
     7
370
     0
100
AcDbLine
 10
76.07987535018978
 20
111.3821320424491
 30
0.0
 11
76.07987535018978
 21
111.4985603532277
 31
0.0
  0
LINE
  5
1E0
330
9C
100
AcDbEntity
  8
0
  6
Continuous
 62
     7
370
     0
100
AcDbLine
 10
76.00487601565752
 20
106.7478187175707
 30
0.0
 11
79.5325954036148
 21
111.2912927490802
 31
0.0
  0
LINE
  5
1E1
330
9C
100
AcDbEntity
  8
0
  6
Continuous
 62
     7
370
     0
100
AcDbLine
 10
80.60107009337007
 20
109.4014326055855
 30
0.0
 11
84.63861471550613
 21
114.6015285101405
 31
0.0
  0
ENDBLK
  5
2FC
330
9C
100
AcDbEntity
  8
0
370
     0
100
AcDbBlockEnd
  0
BLOCK
  5
1E5
330
A3
100
AcDbEntity
  8
DEFAULT
  6
Continuous
 62
   136
370
     0
100
AcDbBlockBegin
  2
_SE_FILLED
 70
     0
 10
0.0
 20
0.0
 30
0.0
  3
_SE_FILLED
  1

  0
SOLID
  5
1E6
330
A3
100
AcDbEntity
  8
DEFAULT
  6
Continuous
 62
   136
370
     0
100
AcDbTrace
 10
0.0
 20
0.0
 30
0.0
 11
-1.0
 21
-0.1665
 31
0.0
 12
-1.0
 22
0.1665
 32
0.0
 13
0.0
 23
0.0
 33
0.0
  0
LINE
  5
1E7
330
A3
100
AcDbEntity
  8
DEFAULT
  6
Continuous
 62
   136
370
     0
100
AcDbLine
 10
0.0
 20
0.0
 30
0.0
 11
-1.0
 21
0.0
 31
0.0
  0
ENDBLK
  5
1E8
330
A3
100
AcDbEntity
  8
DEFAULT
  6
Continuous
 62
   136
370
     0
100
AcDbBlockEnd
  0
BLOCK
  5
1E9
330
A6
100
AcDbEntity
  8
DEFAULT
 62
     1
 48
0.0
370
     0
100
AcDbBlockBegin
  2
SE8
 70
     0
 10
0.0
 20
0.0
 30
0.0
  3
SE8
  1

  0
HATCH
  5
1EA
330
A6
100
AcDbEntity
  8
DEFAULT
  6
Continuous
 62
   136
100
AcDbHatch
 10
0.0
 20
0.0
 30
0.0
210
0.0
220
0.0
230
1.0
  2
SOLID
 70
     1
 71
     0
 91
        1
 92
        1
 93
        3
 72
     1
 10
94.70729232208228
 20
212.1853455407175
 11
97.70729234815931
 21
211.6853455363713
 72
     1
 10
97.70729234815931
 20
211.6853455363713
 11
94.70729232208228
 21
211.1853455320252
 72
     1
 10
94.70729232208228
 20
211.1853455320252
 11
94.70729232208228
 21
212.1853455407175
 97
        0
 75
     0
 76
     1
 98
        1
 10
0.0
 20
0.0
  0
HATCH
  5
1EB
330
A6
100
AcDbEntity
  8
DEFAULT
  6
Continuous
 62
   136
100
AcDbHatch
 10
0.0
 20
0.0
 30
0.0
210
0.0
220
0.0
230
1.0
  2
SOLID
 70
     1
 71
     0
 91
        1
 92
        1
 93
        3
 72
     1
 10
52.70729237423633
 20
212.1853455407175
 11
49.7072923481593
 21
211.6853455363713
 72
     1
 10
49.7072923481593
 20
211.6853455363713
 11
52.70729237423633
 21
211.1853455320252
 72
     1
 10
52.70729237423633
 20
211.1853455320252
 11
52.70729237423633
 21
212.1853455407175
 97
        0
 75
     0
 76
     1
 98
        1
 10
0.0
 20
0.0
  0
LINE
  5
1EC
330
A6
100
AcDbEntity
  8
DEFAULT
  6
Continuous
 62
   136
370
     0
100
AcDbLine
 10
97.70729234815931
 20
177.8921531795464
 30
0.0
 11
97.70729234815931
 21
213.1853455494098
 31
0.0
  0
LINE
  5
1ED
330
A6
100
AcDbEntity
  8
DEFAULT
  6
Continuous
 62
   136
370
     0
100
AcDbLine
 10
49.7072923481593
 20
181.8921535595261
 30
0.0
 11
49.7072923481593
 21
213.1853455494098
 31
0.0
  0
LINE
  5
1EE
330
A6
100
AcDbEntity
  8
DEFAULT
  6
Continuous
 62
   136
370
     0
100
AcDbLine
 10
97.70729234815931
 20
211.6853455363713
 30
0.0
 11
49.7072919309268
 21
211.6853455363713
 31
0.0
  0
TEXT
  5
1EF
330
A6
100
AcDbEntity
  8
DEFAULT
  6
Continuous
 62
   136
370
     0
100
AcDbText
 10
71.86638304863395
 20
212.4353455363713
 30
0.0
 40
3.0
  1
48
  7
seiso_ttf
 11
71.86638304863395
 21
215.4353455363713
 31
0.0
100
AcDbText
 73
     3
  0
ENDBLK
  5
2FD
330
A6
100
AcDbEntity
  8
0
370
     0
100
AcDbBlockEnd
  0
BLOCK
  5
2FE
330
A9
100
AcDbEntity
  8
0
370
     0
100
AcDbBlockBegin
  2
DMBLK89
 70
     0
 10
0.0
 20
0.0
 30
0.0
  3
DMBLK89
  1

  0
INSERT
  5
1F2
330
A9
100
AcDbEntity
  8
DEFAULT
 62
     0
 48
0.0
370
     0
100
AcDbBlockReference
  2
SE8
 10
0.0
 20
0.0
 30
0.0
  0
ENDBLK
  5
1F3
330
A9
100
AcDbEntity
  8
DEFAULT
 62
     0
 48
0.0
370
     0
100
AcDbBlockEnd
  0
BLOCK
  5
1F4
330
AB
100
AcDbEntity
  8
DEFAULT
 62
     1
 48
0.0
370
     0
100
AcDbBlockBegin
  2
SE9
 70
     0
 10
0.0
 20
0.0
 30
0.0
  3
SE9
  1

  0
HATCH
  5
1F5
330
AB
100
AcDbEntity
  8
DEFAULT
  6
Continuous
 62
   136
100
AcDbHatch
 10
0.0
 20
0.0
 30
0.0
210
0.0
220
0.0
230
1.0
  2
SOLID
 70
     1
 71
     0
 91
        1
 92
        1
 93
        3
 72
     1
 10
65.77852084989887
 20
202.3944963874588
 11
68.35966085670858
 21
200.7858583218721
 72
     1
 10
68.35966085670858
 20
200.7858583218721
 11
66.43976238505185
 21
203.1446694672033
 72
     1
 10
66.43976238505185
 20
203.1446694672033
 11
65.77852084989887
 21
202.3944963874588
 97
        0
 75
     0
 76
     1
 98
        1
 10
0.0
 20
0.0
  0
HATCH
  5
1F6
330
AB
100
AcDbEntity
  8
DEFAULT
  6
Continuous
 62
   136
100
AcDbHatch
 10
0.0
 20
0.0
 30
0.0
210
0.0
220
0.0
230
1.0
  2
SOLID
 70
     1
 71
     0
 91
        1
 92
        1
 93
        3
 72
     1
 10
52.7307395721602
 20
208.7715834000014
 11
49.70729234815931
 21
208.4417849092685
 72
     1
 10
49.7072923481593
 20
208.4417849092685
 11
52.6742716651546
 21
207.773178976502
 72
     1
 10
52.6742716651546
 20
207.773178976502
 11
52.73073957216019
 21
208.7715834000014
 97
        0
 75
     0
 76
     1
 98
        1
 10
0.0
 20
0.0
  0
LINE
  5
1F7
330
AB
100
AcDbEntity
  8
DEFAULT
  6
Continuous
 62
   136
370
     0
100
AcDbLine
 10
67.30255732294927
 20
199.7150772860693
 30
0.0
 11
69.41348112292994
 21
201.8533136090581
 31
0.0
  0
LINE
  5
1F8
330
AB
100
AcDbEntity
  8
DEFAULT
  6
Continuous
 62
   136
370
     0
100
AcDbLine
 10
49.7072923481593
 20
181.8921531795465
 30
0.0
 11
49.7072923481593
 21
209.9417842238151
 31
0.0
  0
ARC
  5
1F9
330
AB
100
AcDbEntity
  8
DEFAULT
  6
Continuous
 62
   136
370
     0
100
AcDbCircle
 10
49.70729234815929
 20
181.8921531795465
 30
0.0
 40
26.549631729722
100
AcDbArc
 50
45.36827765953986
 51
89.9999985268265
  0
TEXT
  5
1FA
330
AB
100
AcDbEntity
  8
DEFAULT
  6
Continuous
 62
   136
370
     0
100
AcDbText
 10
57.89719908468447
 20
208.040355932488
 30
0.0
 40
3.0
  1
45°
 50
337.6841388297699
  7
seiso_ttf
 11
59.0363358960726
 21
210.8156698471543
 31
0.0
100
AcDbText
 73
     3
  0
ENDBLK
  5
2FF
330
AB
100
AcDbEntity
  8
0
370
     0
100
AcDbBlockEnd
  0
BLOCK
  5
300
330
AE
100
AcDbEntity
  8
0
370
     0
100
AcDbBlockBegin
  2
DMBLK90
 70
     0
 10
0.0
 20
0.0
 30
0.0
  3
DMBLK90
  1

  0
LINE
  5
3C1
330
AE
100
AcDbEntity
  8
DEFAULT
  6
Continuous
 62
   136
370
    -2
100
AcDbLine
 10
67.30255769827832
 20
199.7150776662546
 30
0.0
 11
69.41348160449329
 21
201.8533140968522
 31
0.0
  0
LINE
  5
3C2
330
AE
100
AcDbEntity
  8
DEFAULT
  6
Continuous
 62
   136
370
    -2
100
AcDbLine
 10
49.7072923481593
 20
181.8921531795464
 30
0.0
 11
49.70729234815933
 21
209.9417849092684
 31
0.0
  0
ARC
  5
3C3
330
AE
100
AcDbEntity
  8
DEFAULT
  6
Continuous
 62
   136
370
    -2
100
AcDbCircle
 10
49.7072923481593
 20
181.8921531795464
 30
0.0
 40
26.54963172972202
100
AcDbArc
 50
51.84591608821622
 51
83.52236157132365
  0
INSERT
  5
3C4
330
AE
100
AcDbEntity
  8
DEFAULT
  6
Continuous
 62
   136
370
    -2
100
AcDbBlockReference
  2
_SE_FILLED
 10
68.3596608567086
 20
200.7858583218721
 30
0.0
 41
3.0
 42
3.0
 43
3.0
 50
318.6070968738781
  0
INSERT
  5
3C5
330
AE
100
AcDbEntity
  8
DEFAULT
  6
Continuous
 62
   136
370
    -2
100
AcDbBlockReference
  2
_SE_FILLED
 10
49.70729234815934
 20
208.4417849092684
 30
0.0
 41
3.0
 42
3.0
 43
3.0
 50
176.7611807856618
  0
MTEXT
  5
3C6
102
{ACAD_XDICTIONARY
360
676
102
}
330
AE
100
AcDbEntity
  8
DEFAULT
  6
Continuous
 62
   136
370
     0
100
AcDbMText
 10
60.92765010358892
 20
209.2286545504674
 30
0.0
 40
3.0
 41
0.0
 71
     5
 72
     1
  1
\A1;\A1;45\U+00B0
  7
seiso_ttf
 11
0.9251046382221071
 21
-0.3797122704627076
 31
0.0
 73
     1
 44
1.0
1001
ACAD
1000
MTEXTBEGIN
1070
    73
1070
     1
1070
    44
1040
1.0
1070
    74
1070
     0
1000
MTEXTEND
  0
POINT
  5
3C7
330
AE
100
AcDbEntity
  8
DEFPOINTS
  6
Continuous
 62
     0
370
     0
100
AcDbPoint
 10
62.88346069121549
 20
204.9414814296128
 30
0.0
  0
POINT
  5
3C8
330
AE
100
AcDbEntity
  8
DEFPOINTS
  6
Continuous
 62
     0
370
     0
100
AcDbPoint
 10
49.7072923481593
 20
181.8921531795464
 30
0.0
  0
POINT
  5
3C9
330
AE
100
AcDbEntity
  8
DEFPOINTS
  6
Continuous
 62
     0
370
     0
100
AcDbPoint
 10
49.7072923481593
 20
181.8921531795464
 30
0.0
  0
POINT
  5
3CA
330
AE
100
AcDbEntity
  8
DEFPOINTS
  6
Continuous
 62
     0
370
     0
100
AcDbPoint
 10
49.70729234815931
 20
173.8921531795464
 30
0.0
  0
POINT
  5
3CB
330
AE
100
AcDbEntity
  8
DEFPOINTS
  6
Continuous
 62
     0
370
     0
100
AcDbPoint
 10
67.30255769827832
 20
199.7150776662546
 30
0.0
  0
ENDBLK
  5
1FE
330
AE
100
AcDbEntity
  8
DEFAULT
 62
     0
 48
0.0
370
     0
100
AcDbBlockEnd
  0
BLOCK
  5
1FF
330
B0
100
AcDbEntity
  8
DEFAULT
 62
     1
 48
0.0
370
     0
100
AcDbBlockBegin
  2
SE10
 70
     0
 10
0.0
 20
0.0
 30
0.0
  3
SE10
  1

  0
LINE
  5
200
330
B0
100
AcDbEntity
  8
DEFAULT
  6
Continuous
 62
   136
370
     0
100
AcDbLine
 10
64.52178756892085
 20
189.4391159935755
 30
0.0
 11
77.3814945897227
 21
194.9733681958955
 31
0.0
  0
LINE
  5
201
330
B0
100
AcDbEntity
  8
DEFAULT
  6
Continuous
 62
   136
370
     0
100
AcDbLine
 10
77.38149424069224
 20
194.9733680456881
 30
0.0
 11
106.5080272010204
 21
207.5081465535417
 31
0.0
  0
HATCH
  5
202
330
B0
100
AcDbEntity
  8
DEFAULT
  6
Continuous
 62
   136
100
AcDbHatch
 10
0.0
 20
0.0
 30
0.0
210
0.0
220
0.0
230
1.0
  2
SOLID
 70
     1
 71
     0
 91
        1
 92
        1
 93
        3
 72
     1
 10
67.07978715228785
 20
191.0843023940489
 11
70.03309045562639
 21
191.8109383134048
 72
     1
 10
70.03309045562639
 20
191.8109383134048
 11
67.4750908722594
 21
190.1657519129313
 72
     1
 10
67.47509087225939
 20
190.1657519129313
 11
67.07978715228785
 21
191.084302394049
 97
        0
 75
     0
 76
     1
 98
        1
 10
0.0
 20
0.0
  0
HATCH
  5
203
330
B0
100
AcDbEntity
  8
DEFAULT
  6
Continuous
 62
   136
100
AcDbHatch
 10
0.0
 20
0.0
 30
0.0
210
0.0
220
0.0
230
1.0
  2
SOLID
 70
     1
 71
     0
 91
        1
 92
        1
 93
        3
 72
     1
 10
79.93949382405924
 20
196.6185544461615
 11
77.38149424069225
 21
194.9733680456881
 72
     1
 10
77.38149424069224
 20
194.9733680456881
 11
80.33479754403078
 21
195.700003965044
 72
     1
 10
80.33479754403078
 20
195.700003965044
 11
79.93949382405924
 21
196.6185544461616
 97
        0
 75
     0
 76
     1
 98
        1
 10
0.0
 20
0.0
  0
TEXT
  5
204
330
B0
100
AcDbEntity
  8
DEFAULT
  6
Continuous
 62
   136
370
     0
100
AcDbText
 10
87.66155132126852
 20
200.2139562451892
 30
0.0
 40
3.0
  1
O
 50
23.28491742780095
  7
semeci1_ttf
 11
86.47564017166226
 21
202.9696076645889
 31
0.0
100
AcDbText
 73
     3
  0
TEXT
  5
205
330
B0
100
AcDbEntity
  8
DEFAULT
  6
Continuous
 62
   136
370
     0
100
AcDbText
 10
90.73007146077474
 20
201.5345123288119
 30
0.0
 40
3.0
  1
6  o  
 50
23.28491742780095
  7
seiso_ttf
 11
89.54416031116847
 21
204.2901637482116
 31
0.0
100
AcDbText
 73
     3
  0
TEXT
  5
206
330
B0
100
AcDbEntity
  8
DEFAULT
  6
Continuous
 62
   136
370
     0
100
AcDbText
 10
98.49599818817388
 20
204.8766255686113
 30
0.0
 40
3.0
  1
O
 50
23.28491742780095
  7
semeci1_ttf
 11
97.31008703856762
 21
207.632276988011
 31
0.0
100
AcDbText
 73
     3
  0
TEXT
  5
207
330
B0
100
AcDbEntity
  8
DEFAULT
  6
Continuous
 62
   136
370
     0
100
AcDbText
 10
101.56451832768
 20
206.197181652234
 30
0.0
 40
3.0
  1
8
 50
23.28491742780095
  7
seiso_ttf
 11
100.3786071780738
 21
208.9528330716337
 31
0.0
100
AcDbText
 73
     3
  0
ENDBLK
  5
301
330
B0
100
AcDbEntity
  8
0
370
     0
100
AcDbBlockEnd
  0
BLOCK
  5
302
330
B4
100
AcDbEntity
  8
0
370
     0
100
AcDbBlockBegin
  2
DMBLK91
 70
     0
 10
0.0
 20
0.0
 30
0.0
  3
DMBLK91
  1

  0
LINE
  5
3CC
330
B4
100
AcDbEntity
  8
DEFAULT
  6
Continuous
 62
   136
370
    -2
100
AcDbLine
 10
67.27743903622673
 20
190.6250271637985
 30
0.0
 11
64.52178761682704
 21
189.4391160141923
 31
0.0
  0
LINE
  5
3CD
330
B4
100
AcDbEntity
  8
DEFAULT
  6
Continuous
 62
   136
370
    -2
100
AcDbLine
 10
80.13714566009195
 20
196.1592791952944
 30
0.0
 11
82.89279707949164
 21
197.3451903449006
 31
0.0
  0
MTEXT
  5
3CE
330
B4
100
AcDbEntity
  8
DEFAULT
  6
Continuous
 62
   136
370
     0
100
AcDbMText
 10
86.99355111188017
 20
199.109974487977
 30
0.0
 40
3.0
 41
0.0
 71
     5
 72
     1
  1
\A1;\A1;%%C6  o  %%C8 {}
  7
seiso_ttf
 73
     1
 44
1.0
1001
ACAD
1000
MTEXTBEGIN
1070
    73
1070
     1
1070
    44
1040
1.0
1070
    74
1070
     0
1000
MTEXTEND
  0
LINE
  5
3CF
330
B4
100
AcDbEntity
  8
DEFAULT
  6
Continuous
 62
   136
370
    -2
100
AcDbLine
 10
70.03309045562644
 20
191.8109383134048
 30
0.0
 11
77.38149424069225
 21
194.9733680456881
 31
0.0
  0
INSERT
  5
3D0
330
B4
100
AcDbEntity
  8
DEFAULT
  6
Continuous
 62
   136
370
    -2
100
AcDbBlockReference
  2
_SE_FILLED
 10
70.03309045562644
 20
191.8109383134048
 30
0.0
 41
3.0
 42
3.0
 43
3.0
 50
23.28491742780087
  0
INSERT
  5
3D1
330
B4
100
AcDbEntity
  8
DEFAULT
  6
Continuous
 62
   136
370
    -2
100
AcDbBlockReference
  2
_SE_FILLED
 10
77.38149424069225
 20
194.9733680456881
 30
0.0
 41
3.0
 42
3.0
 43
3.0
 50
203.2849174278008
  0
POINT
  5
3D2
330
B4
100
AcDbEntity
  8
DEFPOINTS
  6
Continuous
 62
     0
370
     0
100
AcDbPoint
 10
77.38149424069225
 20
194.9733680456881
 30
0.0
  0
POINT
  5
3D3
330
B4
100
AcDbEntity
  8
DEFPOINTS
  6
Continuous
 62
     0
370
     0
100
AcDbPoint
 10
70.03309045562644
 20
191.8109383134048
 30
0.0
  0
ENDBLK
  5
20B
330
B4
100
AcDbEntity
  8
DEFAULT
 62
     0
 48
0.0
370
     0
100
AcDbBlockEnd
  0
BLOCK
  5
20C
330
B6
100
AcDbEntity
  8
DEFAULT
 62
     1
 48
0.0
370
     0
100
AcDbBlockBegin
  2
SE11
 70
     0
 10
0.0
 20
0.0
 30
0.0
  3
SE11
  1

  0
HATCH
  5
20D
330
B6
100
AcDbEntity
  8
DEFAULT
  6
Continuous
 62
   136
100
AcDbHatch
 10
0.0
 20
0.0
 30
0.0
210
0.0
220
0.0
230
1.0
  2
SOLID
 70
     1
 71
     0
 91
        1
 92
        1
 93
        3
 72
     1
 10
115.3164861389868
 20
170.8921531534694
 11
115.8164861433329
 21
173.8921531795465
 72
     1
 10
115.8164861433329
 20
173.8921531795465
 11
116.3164861476791
 21
170.8921531534694
 72
     1
 10
116.3164861476791
 20
170.8921531534694
 11
115.3164861389868
 21
170.8921531534694
 97
        0
 75
     0
 76
     1
 98
        1
 10
0.0
 20
0.0
  0
HATCH
  5
20E
330
B6
100
AcDbEntity
  8
DEFAULT
  6
Continuous
 62
   136
100
AcDbHatch
 10
0.0
 20
0.0
 30
0.0
210
0.0
220
0.0
230
1.0
  2
SOLID
 70
     1
 71
     0
 91
        1
 92
        1
 93
        3
 72
     1
 10
115.3164861389868
 20
184.8921532056235
 11
115.8164861433329
 21
181.8921531795464
 72
     1
 10
115.8164861433329
 20
181.8921531795464
 11
116.3164861476791
 21
184.8921532056235
 72
     1
 10
116.3164861476791
 20
184.8921532056235
 11
115.3164861389868
 21
184.8921532056235
 97
        0
 75
     0
 76
     1
 98
        1
 10
0.0
 20
0.0
  0
LINE
  5
20F
330
B6
100
AcDbEntity
  8
DEFAULT
  6
Continuous
 62
   136
370
     0
100
AcDbLine
 10
123.00333947019
 20
173.8921531795465
 30
0.0
 11
114.3164861302944
 21
173.8921531795465
 31
0.0
  0
LINE
  5
210
330
B6
100
AcDbEntity
  8
DEFAULT
  6
Continuous
 62
   136
370
     0
100
AcDbLine
 10
123.00333947019
 20
181.8921531795464
 30
0.0
 11
114.3164861302944
 21
181.8921531795464
 31
0.0
  0
LINE
  5
211
330
B6
100
AcDbEntity
  8
DEFAULT
  6
Continuous
 62
   136
370
     0
100
AcDbLine
 10
115.8164861433329
 20
167.8921531273924
 30
0.0
 11
115.8164861433329
 21
187.8921536116801
 31
0.0
  0
TEXT
  5
212
330
B6
100
AcDbEntity
  8
DEFAULT
  6
Continuous
 62
   136
370
     0
100
AcDbText
 10
115.0664861433329
 20
176.9376079149908
 30
0.0
 40
3.0
  1
8
 50
90.0
  7
seiso_ttf
 11
112.0664861433329
 21
176.9376079149908
 31
0.0
100
AcDbText
 73
     3
  0
ENDBLK
  5
303
330
B6
100
AcDbEntity
  8
0
370
     0
100
AcDbBlockEnd
  0
BLOCK
  5
304
330
B9
100
AcDbEntity
  8
0
370
     0
100
AcDbBlockBegin
  2
DMBLK92
 70
     0
 10
0.0
 20
0.0
 30
0.0
  3
DMBLK92
  1

  0
LINE
  5
3D4
330
B9
100
AcDbEntity
  8
DEFAULT
  6
Continuous
 62
   136
370
    -2
100
AcDbLine
 10
123.00333947019
 20
173.8921531795465
 30
0.0
 11
114.316486143333
 21
173.8921531795465
 31
0.0
  0
LINE
  5
3D5
330
B9
100
AcDbEntity
  8
DEFAULT
  6
Continuous
 62
   136
370
    -2
100
AcDbLine
 10
123.00333947019
 20
181.8921531795464
 30
0.0
 11
114.316486143333
 21
181.8921531795464
 31
0.0
  0
LINE
  5
3D6
330
B9
100
AcDbEntity
  8
DEFAULT
  6
Continuous
 62
   136
370
    -2
100
AcDbLine
 10
115.816486143333
 20
170.8921531795465
 30
0.0
 11
115.816486143333
 21
167.8921531795465
 31
0.0
  0
LINE
  5
3D7
330
B9
100
AcDbEntity
  8
DEFAULT
  6
Continuous
 62
   136
370
    -2
100
AcDbLine
 10
115.816486143333
 20
184.8921531795464
 30
0.0
 11
115.816486143333
 21
187.8921531795464
 31
0.0
  0
LINE
  5
3D8
330
B9
100
AcDbEntity
  8
DEFAULT
  6
Continuous
 62
   136
370
    -2
100
AcDbLine
 10
115.816486143333
 20
173.8921531795465
 30
0.0
 11
115.816486143333
 21
181.8921531795464
 31
0.0
  0
INSERT
  5
3D9
330
B9
100
AcDbEntity
  8
DEFAULT
  6
Continuous
 62
   136
370
    -2
100
AcDbBlockReference
  2
_SE_FILLED
 10
115.816486143333
 20
173.8921531795465
 30
0.0
 41
3.0
 42
3.0
 43
3.0
 50
90.0
  0
INSERT
  5
3DA
330
B9
100
AcDbEntity
  8
DEFAULT
  6
Continuous
 62
   136
370
    -2
100
AcDbBlockReference
  2
_SE_FILLED
 10
115.816486143333
 20
181.8921531795464
 30
0.0
 41
3.0
 42
3.0
 43
3.0
 50
270.0
  0
MTEXT
  5
3DB
330
B9
100
AcDbEntity
  8
DEFAULT
  6
Continuous
 62
   136
370
     0
100
AcDbMText
 10
112.8164861433329
 20
177.8921531795465
 30
0.0
 40
3.0
 41
0.0
 71
     5
 72
     1
  1
\A1;\A1;8
  7
seiso_ttf
 11
0.0000000000000001
 21
1.0
 31
0.0
 73
     1
 44
1.0
1001
ACAD
1000
MTEXTBEGIN
1070
    73
1070
     1
1070
    44
1040
1.0
1070
    74
1070
     0
1000
MTEXTEND
  0
POINT
  5
3DC
330
B9
100
AcDbEntity
  8
DEFPOINTS
  6
Continuous
 62
     0
370
     0
100
AcDbPoint
 10
123.00333947019
 20
173.8921531795465
 30
0.0
  0
POINT
  5
3DD
330
B9
100
AcDbEntity
  8
DEFPOINTS
  6
Continuous
 62
     0
370
     0
100
AcDbPoint
 10
123.00333947019
 20
181.8921531795464
 30
0.0
  0
POINT
  5
3DE
330
B9
100
AcDbEntity
  8
DEFPOINTS
  6
Continuous
 62
     0
370
     0
100
AcDbPoint
 10
115.816486143333
 20
181.8921531795464
 30
0.0
  0
ENDBLK
  5
216
330
B9
100
AcDbEntity
  8
DEFAULT
 62
     0
 48
0.0
370
     0
100
AcDbBlockEnd
  0
BLOCK
  5
217
330
BB
100
AcDbEntity
  8
DEFAULT
  6
Continuous
 62
   136
370
     0
100
AcDbBlockBegin
  2
_SE_BLANK
 70
     0
 10
0.0
 20
0.0
 30
0.0
  3
_SE_BLANK
  1

  0
LINE
  5
218
330
BB
100
AcDbEntity
  8
DEFAULT
  6
Continuous
 62
   136
370
     0
100
AcDbLine
 10
0.0
 20
0.0
 30
0.0
 11
-1.0
 21
0.0
 31
0.0
  0
ENDBLK
  5
219
330
BB
100
AcDbEntity
  8
DEFAULT
  6
Continuous
 62
   136
370
     0
100
AcDbBlockEnd
  0
BLOCK
  5
21A
330
BC
100
AcDbEntity
  8
DEFAULT
 62
     1
 48
0.0
370
     0
100
AcDbBlockBegin
  2
SE12
 70
     0
 10
0.0
 20
0.0
 30
0.0
  3
SE12
  1

  0
HATCH
  5
21B
330
BC
100
AcDbEntity
  8
DEFAULT
  6
Continuous
 62
   136
100
AcDbHatch
 10
0.0
 20
0.0
 30
0.0
210
0.0
220
0.0
230
1.0
  2
SOLID
 70
     1
 71
     0
 91
        1
 92
        1
 93
        3
 72
     1
 10
120.0588989668958
 20
170.8921531534694
 11
120.5588989712419
 21
173.8921531795465
 72
     1
 10
120.5588989712419
 20
173.8921531795465
 11
121.0588989755881
 21
170.8921531534694
 72
     1
 10
121.0588989755881
 20
170.8921531534694
 11
120.0588989668958
 21
170.8921531534694
 97
        0
 75
     0
 76
     1
 98
        1
 10
0.0
 20
0.0
  0
LINE
  5
21C
330
BC
100
AcDbEntity
  8
DEFAULT
  6
Continuous
 62
   136
370
     0
100
AcDbLine
 10
123.00333947019
 20
173.8921531795465
 30
0.0
 11
119.0588989582034
 21
173.8921531795465
 31
0.0
  0
LINE
  5
21D
330
BC
100
AcDbEntity
  8
DEFAULT
  6
Continuous
 62
   136
370
     0
100
AcDbLine
 10
125.50333947019
 20
180.8921531795464
 30
0.0
 11
119.0588989582034
 21
180.8921531795464
 31
0.0
  0
LINE
  5
21E
330
BC
100
AcDbEntity
  8
DEFAULT
  6
Continuous
 62
   136
370
     0
100
AcDbLine
 10
120.5588989712419
 20
167.8921531273924
 30
0.0
 11
120.5588989712419
 21
186.8921534477674
 31
0.0
  0
TEXT
  5
21F
330
BC
100
AcDbEntity
  8
DEFAULT
  6
Continuous
 62
   136
370
     0
100
AcDbText
 10
119.8088989712419
 20
176.4376078330344
 30
0.0
 40
3.0
  1
7
 50
90.0
  7
seiso_ttf
 11
116.8088989712419
 21
176.4376078330344
 31
0.0
100
AcDbText
 73
     3
  0
ENDBLK
  5
305
330
BC
100
AcDbEntity
  8
0
370
     0
100
AcDbBlockEnd
  0
BLOCK
  5
306
330
BE
100
AcDbEntity
  8
0
370
     0
100
AcDbBlockBegin
  2
DMBLK93
 70
     0
 10
0.0
 20
0.0
 30
0.0
  3
DMBLK93
  1

  0
LINE
  5
3DF
330
BE
100
AcDbEntity
  8
DEFAULT
  6
Continuous
 62
   136
370
    -2
100
AcDbLine
 10
123.00333947019
 20
173.8921531795465
 30
0.0
 11
119.058898971242
 21
173.8921531795465
 31
0.0
  0
LINE
  5
3E0
330
BE
100
AcDbEntity
  8
DEFAULT
  6
Continuous
 62
   136
370
    -2
100
AcDbLine
 10
125.50333947019
 20
180.8921531795464
 30
0.0
 11
119.058898971242
 21
180.8921531795464
 31
0.0
  0
LINE
  5
3E1
330
BE
100
AcDbEntity
  8
DEFAULT
  6
Continuous
 62
   136
370
    -2
100
AcDbLine
 10
120.558898971242
 20
170.8921531795465
 30
0.0
 11
120.558898971242
 21
167.8921531795465
 31
0.0
  0
LINE
  5
3E2
330
BE
100
AcDbEntity
  8
DEFAULT
  6
Continuous
 62
   136
370
    -2
100
AcDbLine
 10
120.558898971242
 20
183.8921531795464
 30
0.0
 11
120.558898971242
 21
186.8921531795464
 31
0.0
  0
LINE
  5
3E3
330
BE
100
AcDbEntity
  8
DEFAULT
  6
Continuous
 62
   136
370
    -2
100
AcDbLine
 10
120.558898971242
 20
173.8921531795465
 30
0.0
 11
120.558898971242
 21
180.8921531795464
 31
0.0
  0
INSERT
  5
3E4
330
BE
100
AcDbEntity
  8
DEFAULT
  6
Continuous
 62
   136
370
    -2
100
AcDbBlockReference
  2
_SE_FILLED
 10
120.558898971242
 20
173.8921531795465
 30
0.0
 41
3.0
 42
3.0
 43
3.0
 50
90.0
  0
INSERT
  5
3E5
330
BE
100
AcDbEntity
  8
DEFAULT
  6
Continuous
 62
   136
370
    -2
100
AcDbBlockReference
  2
_SE_BLANK
 10
120.558898971242
 20
180.8921531795464
 30
0.0
 41
3.0
 42
3.0
 43
3.0
 50
270.0
  0
MTEXT
  5
3E6
330
BE
100
AcDbEntity
  8
DEFAULT
  6
Continuous
 62
   136
370
     0
100
AcDbMText
 10
117.5588989712419
 20
177.3921531795465
 30
0.0
 40
3.0
 41
0.0
 71
     5
 72
     1
  1
\A1;\A1;7
  7
seiso_ttf
 11
0.0000000000000001
 21
1.0
 31
0.0
 73
     1
 44
1.0
1001
ACAD
1000
MTEXTBEGIN
1070
    73
1070
     1
1070
    44
1040
1.0
1070
    74
1070
     0
1000
MTEXTEND
  0
POINT
  5
3E7
330
BE
100
AcDbEntity
  8
DEFPOINTS
  6
Continuous
 62
     0
370
     0
100
AcDbPoint
 10
123.00333947019
 20
173.8921531795465
 30
0.0
  0
POINT
  5
3E8
330
BE
100
AcDbEntity
  8
DEFPOINTS
  6
Continuous
 62
     0
370
     0
100
AcDbPoint
 10
125.50333947019
 20
180.8921531795464
 30
0.0
  0
POINT
  5
3E9
330
BE
100
AcDbEntity
  8
DEFPOINTS
  6
Continuous
 62
     0
370
     0
100
AcDbPoint
 10
120.558898971242
 20
180.8921531795464
 30
0.0
  0
ENDBLK
  5
223
330
BE
100
AcDbEntity
  8
DEFAULT
 62
     0
 48
0.0
370
     0
100
AcDbBlockEnd
  0
BLOCK
  5
224
330
C0
100
AcDbEntity
  8
DEFAULT
 62
     1
 48
0.0
370
     0
100
AcDbBlockBegin
  2
SE13
 70
     0
 10
0.0
 20
0.0
 30
0.0
  3
SE13
  1

  0
HATCH
  5
225
330
C0
100
AcDbEntity
  8
DEFAULT
  6
Continuous
 62
   136
100
AcDbHatch
 10
0.0
 20
0.0
 30
0.0
210
0.0
220
0.0
230
1.0
  2
SOLID
 70
     1
 71
     0
 91
        1
 92
        1
 93
        3
 72
     1
 10
120.0588990227751
 20
184.8921532056235
 11
120.5588990271213
 21
181.8921531795464
 72
     1
 10
120.5588990271213
 20
181.8921531795464
 11
121.0588990314674
 21
184.8921532056235
 72
     1
 10
121.0588990314674
 20
184.8921532056235
 11
120.0588990227751
 21
184.8921532056235
 97
        0
 75
     0
 76
     1
 98
        1
 10
0.0
 20
0.0
  0
LINE
  5
226
330
C0
100
AcDbEntity
  8
DEFAULT
  6
Continuous
 62
   136
370
     0
100
AcDbLine
 10
125.50333947019
 20
180.8921531795464
 30
0.0
 11
119.0588990140827
 21
180.8921531795464
 31
0.0
  0
LINE
  5
227
330
C0
100
AcDbEntity
  8
DEFAULT
  6
Continuous
 62
   136
370
     0
100
AcDbLine
 10
125.50333947019
 20
181.8921531795464
 30
0.0
 11
119.0588990140827
 21
181.8921531795464
 31
0.0
  0
LINE
  5
228
330
C0
100
AcDbEntity
  8
DEFAULT
  6
Continuous
 62
   136
370
     0
100
AcDbLine
 10
120.5588990271213
 20
174.8921531273924
 30
0.0
 11
120.5588990271213
 21
189.1989032759271
 31
0.0
  0
TEXT
  5
229
330
C0
100
AcDbEntity
  8
DEFAULT
  6
Continuous
 62
   136
370
     0
100
AcDbText
 10
119.8088990271213
 20
186.9216304435335
 30
0.0
 40
3.0
  1
1
 50
90.0
  7
seiso_ttf
 11
116.8088990271213
 21
186.9216304435335
 31
0.0
100
AcDbText
 73
     3
  0
ENDBLK
  5
307
330
C0
100
AcDbEntity
  8
0
370
     0
100
AcDbBlockEnd
  0
BLOCK
  5
308
330
C2
100
AcDbEntity
  8
0
370
     0
100
AcDbBlockBegin
  2
DMBLK94
 70
     0
 10
0.0
 20
0.0
 30
0.0
  3
DMBLK94
  1

  0
LINE
  5
3EA
330
C2
100
AcDbEntity
  8
DEFAULT
  6
Continuous
 62
   136
370
    -2
100
AcDbLine
 10
125.50333947019
 20
180.8921531795464
 30
0.0
 11
119.0588990271213
 21
180.8921531795464
 31
0.0
  0
LINE
  5
3EB
330
C2
100
AcDbEntity
  8
DEFAULT
  6
Continuous
 62
   136
370
    -2
100
AcDbLine
 10
125.50333947019
 20
181.8921531795464
 30
0.0
 11
119.0588990271213
 21
181.8921531795464
 31
0.0
  0
LINE
  5
3EC
330
C2
100
AcDbEntity
  8
DEFAULT
  6
Continuous
 62
   136
370
    -2
100
AcDbLine
 10
120.5588990271213
 20
177.8921531795464
 30
0.0
 11
120.5588990271213
 21
174.8921531795464
 31
0.0
  0
LINE
  5
3ED
330
C2
100
AcDbEntity
  8
DEFAULT
  6
Continuous
 62
   136
370
    -2
100
AcDbLine
 10
120.5588990271213
 20
184.8921531795464
 30
0.0
 11
120.5588990271213
 21
191.6064388938321
 31
0.0
  0
LINE
  5
3EE
330
C2
100
AcDbEntity
  8
DEFAULT
  6
Continuous
 62
   136
370
    -2
100
AcDbLine
 10
120.5588990271213
 20
180.8921531795464
 30
0.0
 11
120.5588990271213
 21
181.8921531795464
 31
0.0
  0
INSERT
  5
3EF
330
C2
100
AcDbEntity
  8
DEFAULT
  6
Continuous
 62
   136
370
    -2
100
AcDbBlockReference
  2
_SE_BLANK
 10
120.5588990271213
 20
180.8921531795464
 30
0.0
 41
3.0
 42
3.0
 43
3.0
 50
90.0
  0
INSERT
  5
3F0
330
C2
100
AcDbEntity
  8
DEFAULT
  6
Continuous
 62
   136
370
    -2
100
AcDbBlockReference
  2
_SE_FILLED
 10
120.5588990271213
 20
181.8921531795464
 30
0.0
 41
3.0
 42
3.0
 43
3.0
 50
270.0
  0
MTEXT
  5
3F1
330
C2
100
AcDbEntity
  8
DEFAULT
  6
Continuous
 62
   136
370
     0
100
AcDbMText
 10
117.5588990271213
 20
189.7492960366893
 30
0.0
 40
3.0
 41
0.0
 71
     5
 72
     1
  1
\A1;\A1;1
  7
seiso_ttf
 11
0.0000000000000001
 21
1.0
 31
0.0
 73
     1
 44
1.0
1001
ACAD
1000
MTEXTBEGIN
1070
    73
1070
     1
1070
    44
1040
1.0
1070
    74
1070
     0
1000
MTEXTEND
  0
POINT
  5
3F2
330
C2
100
AcDbEntity
  8
DEFPOINTS
  6
Continuous
 62
     0
370
     0
100
AcDbPoint
 10
125.50333947019
 20
180.8921531795464
 30
0.0
  0
POINT
  5
3F3
330
C2
100
AcDbEntity
  8
DEFPOINTS
  6
Continuous
 62
     0
370
     0
100
AcDbPoint
 10
125.50333947019
 20
181.8921531795464
 30
0.0
  0
POINT
  5
3F4
330
C2
100
AcDbEntity
  8
DEFPOINTS
  6
Continuous
 62
     0
370
     0
100
AcDbPoint
 10
120.5588990271213
 20
181.8921531795464
 30
0.0
  0
ENDBLK
  5
22D
330
C2
100
AcDbEntity
  8
DEFAULT
 62
     0
 48
0.0
370
     0
100
AcDbBlockEnd
  0
BLOCK
  5
22E
330
C4
100
AcDbEntity
  8
DEFAULT
 62
     1
 48
0.0
370
     0
100
AcDbBlockBegin
  2
SE14
 70
     0
 10
0.0
 20
0.0
 30
0.0
  3
SE14
  1

  0
HATCH
  5
22F
330
C4
100
AcDbEntity
  8
DEFAULT
  6
Continuous
 62
   136
100
AcDbHatch
 10
0.0
 20
0.0
 30
0.0
210
0.0
220
0.0
230
1.0
  2
SOLID
 70
     1
 71
     0
 91
        1
 92
        1
 93
        3
 72
     1
 10
115.3164861389868
 20
184.8921532056235
 11
115.8164861433329
 21
181.8921531795464
 72
     1
 10
115.8164861433329
 20
181.8921531795464
 11
116.3164861476791
 21
184.8921532056235
 72
     1
 10
116.3164861476791
 20
184.8921532056235
 11
115.3164861389868
 21
184.8921532056235
 97
        0
 75
     0
 76
     1
 98
        1
 10
0.0
 20
0.0
  0
HATCH
  5
230
330
C4
100
AcDbEntity
  8
DEFAULT
  6
Continuous
 62
   136
100
AcDbHatch
 10
0.0
 20
0.0
 30
0.0
210
0.0
220
0.0
230
1.0
  2
SOLID
 70
     1
 71
     0
 91
        1
 92
        1
 93
        3
 72
     1
 10
115.3164861389868
 20
199.3921531534694
 11
115.8164861433329
 21
202.3921531795465
 72
     1
 10
115.8164861433329
 20
202.3921531795465
 11
116.3164861476791
 21
199.3921531534694
 72
     1
 10
116.3164861476791
 20
199.3921531534694
 11
115.3164861389868
 21
199.3921531534694
 97
        0
 75
     0
 76
     1
 98
        1
 10
0.0
 20
0.0
  0
LINE
  5
231
330
C4
100
AcDbEntity
  8
DEFAULT
  6
Continuous
 62
   136
370
     0
100
AcDbLine
 10
123.00333947019
 20
181.8921531795464
 30
0.0
 11
114.3164861302944
 21
181.8921531795464
 31
0.0
  0
LINE
  5
232
330
C4
100
AcDbEntity
  8
DEFAULT
  6
Continuous
 62
   136
370
     0
100
AcDbLine
 10
130.00333947019
 20
202.3921531795465
 30
0.0
 11
114.3164861302944
 21
202.3921531795465
 31
0.0
  0
LINE
  5
233
330
C4
100
AcDbEntity
  8
DEFAULT
  6
Continuous
 62
   136
370
     0
100
AcDbLine
 10
115.8164861433329
 20
181.8921531795464
 30
0.0
 11
115.8164861433329
 21
202.3921537457906
 31
0.0
  0
TEXT
  5
234
330
C4
100
AcDbEntity
  8
DEFAULT
  6
Continuous
 62
   136
370
     0
100
AcDbText
 10
115.0664861433329
 20
190.3353352808503
 30
0.0
 40
3.0
  1
20
 50
90.0
  7
seiso_ttf
 11
112.0664861433329
 21
190.3353352808503
 31
0.0
100
AcDbText
 73
     3
  0
ENDBLK
  5
309
330
C4
100
AcDbEntity
  8
0
370
     0
100
AcDbBlockEnd
  0
BLOCK
  5
30A
330
C7
100
AcDbEntity
  8
0
370
     0
100
AcDbBlockBegin
  2
DMBLK95
 70
     0
 10
0.0
 20
0.0
 30
0.0
  3
DMBLK95
  1

  0
LINE
  5
3F5
330
C7
100
AcDbEntity
  8
DEFAULT
  6
Continuous
 62
   136
370
    -2
100
AcDbLine
 10
123.00333947019
 20
181.8921531795464
 30
0.0
 11
114.316486143333
 21
181.8921531795464
 31
0.0
  0
LINE
  5
3F6
330
C7
100
AcDbEntity
  8
DEFAULT
  6
Continuous
 62
   136
370
    -2
100
AcDbLine
 10
130.00333947019
 20
202.3921531795465
 30
0.0
 11
114.316486143333
 21
202.3921531795465
 31
0.0
  0
LINE
  5
3F7
330
C7
100
AcDbEntity
  8
DEFAULT
  6
Continuous
 62
   136
370
    -2
100
AcDbLine
 10
115.816486143333
 20
184.8921531795464
 30
0.0
 11
115.816486143333
 21
199.3921531795464
 31
0.0
  0
INSERT
  5
3F8
330
C7
100
AcDbEntity
  8
DEFAULT
  6
Continuous
 62
   136
370
    -2
100
AcDbBlockReference
  2
_SE_FILLED
 10
115.816486143333
 20
181.8921531795464
 30
0.0
 41
3.0
 42
3.0
 43
3.0
 50
270.0
  0
INSERT
  5
3F9
330
C7
100
AcDbEntity
  8
DEFAULT
  6
Continuous
 62
   136
370
    -2
100
AcDbBlockReference
  2
_SE_FILLED
 10
115.816486143333
 20
202.3921531795465
 30
0.0
 41
3.0
 42
3.0
 43
3.0
 50
90.0
  0
MTEXT
  5
3FA
330
C7
100
AcDbEntity
  8
DEFAULT
  6
Continuous
 62
   136
370
     0
100
AcDbMText
 10
112.8164861433329
 20
192.1421534626685
 30
0.0
 40
3.0
 41
0.0
 71
     5
 72
     1
  1
\A1;\A1;21
  7
seiso_ttf
 11
0.0000000000000001
 21
1.0
 31
0.0
 73
     1
 44
1.0
1001
ACAD
1000
MTEXTBEGIN
1070
    73
1070
     1
1070
    44
1040
1.0
1070
    74
1070
     0
1000
MTEXTEND
  0
POINT
  5
3FB
330
C7
100
AcDbEntity
  8
DEFPOINTS
  6
Continuous
 62
     0
370
     0
100
AcDbPoint
 10
123.00333947019
 20
181.8921531795464
 30
0.0
  0
POINT
  5
3FC
330
C7
100
AcDbEntity
  8
DEFPOINTS
  6
Continuous
 62
     0
370
     0
100
AcDbPoint
 10
130.00333947019
 20
202.3921531795465
 30
0.0
  0
POINT
  5
3FD
330
C7
100
AcDbEntity
  8
DEFPOINTS
  6
Continuous
 62
     0
370
     0
100
AcDbPoint
 10
115.816486143333
 20
202.3921531795465
 30
0.0
  0
ENDBLK
  5
238
330
C7
100
AcDbEntity
  8
DEFAULT
 62
     0
 48
0.0
370
     0
100
AcDbBlockEnd
  0
BLOCK
  5
239
330
C9
100
AcDbEntity
  8
DEFAULT
 62
     1
 48
0.0
370
     0
100
AcDbBlockBegin
  2
SE15
 70
     0
 10
0.0
 20
0.0
 30
0.0
  3
SE15
  1

  0
HATCH
  5
23A
330
C9
100
AcDbEntity
  8
DEFAULT
  6
Continuous
 62
   136
100
AcDbHatch
 10
0.0
 20
0.0
 30
0.0
210
0.0
220
0.0
230
1.0
  2
SOLID
 70
     1
 71
     0
 91
        1
 92
        1
 93
        3
 72
     1
 10
120.003339444113
 20
208.9175066453966
 11
123.00333947019
 21
208.4175066410505
 72
     1
 10
123.00333947019
 20
208.4175066410505
 11
120.003339444113
 21
207.9175066367043
 72
     1
 10
120.003339444113
 20
207.9175066367043
 11
120.003339444113
 21
208.9175066453966
 97
        0
 75
     0
 76
     1
 98
        1
 10
0.0
 20
0.0
  0
HATCH
  5
23B
330
C9
100
AcDbEntity
  8
DEFAULT
  6
Continuous
 62
   136
100
AcDbHatch
 10
0.0
 20
0.0
 30
0.0
210
0.0
220
0.0
230
1.0
  2
SOLID
 70
     1
 71
     0
 91
        1
 92
        1
 93
        3
 72
     1
 10
133.0033394962671
 20
208.9175066453966
 11
130.00333947019
 21
208.4175066410505
 72
     1
 10
130.00333947019
 20
208.4175066410505
 11
133.0033394962671
 21
207.9175066367043
 72
     1
 10
133.0033394962671
 20
207.9175066367043
 11
133.0033394962671
 21
208.9175066453966
 97
        0
 75
     0
 76
     1
 98
        1
 10
0.0
 20
0.0
  0
LINE
  5
23C
330
C9
100
AcDbEntity
  8
DEFAULT
  6
Continuous
 62
   136
370
     0
100
AcDbLine
 10
123.00333947019
 20
173.8921531795465
 30
0.0
 11
123.00333947019
 21
209.917506654089
 31
0.0
  0
LINE
  5
23D
330
C9
100
AcDbEntity
  8
DEFAULT
  6
Continuous
 62
   136
370
     0
100
AcDbLine
 10
130.00333947019
 20
201.0536154229006
 30
0.0
 11
130.00333947019
 21
209.917506654089
 31
0.0
  0
LINE
  5
23E
330
C9
100
AcDbEntity
  8
DEFAULT
  6
Continuous
 62
   136
370
     0
100
AcDbLine
 10
117.003339418036
 20
208.4175066410505
 30
0.0
 11
136.0033397384109
 21
208.4175066410505
 31
0.0
  0
TEXT
  5
23F
330
C9
100
AcDbEntity
  8
DEFAULT
  6
Continuous
 62
   136
370
     0
100
AcDbText
 10
125.548794123678
 20
209.1675066410505
 30
0.0
 40
3.0
  1
7
  7
seiso_ttf
 11
125.548794123678
 21
212.1675066410505
 31
0.0
100
AcDbText
 73
     3
  0
ENDBLK
  5
30B
330
C9
100
AcDbEntity
  8
0
370
     0
100
AcDbBlockEnd
  0
BLOCK
  5
30C
330
CC
100
AcDbEntity
  8
0
370
     0
100
AcDbBlockBegin
  2
DMBLK96
 70
     0
 10
0.0
 20
0.0
 30
0.0
  3
DMBLK96
  1

  0
LINE
  5
3FE
330
CC
100
AcDbEntity
  8
DEFAULT
  6
Continuous
 62
   136
370
    -2
100
AcDbLine
 10
123.00333947019
 20
173.8921531795465
 30
0.0
 11
123.00333947019
 21
209.9175066410505
 31
0.0
  0
LINE
  5
3FF
330
CC
100
AcDbEntity
  8
DEFAULT
  6
Continuous
 62
   136
370
    -2
100
AcDbLine
 10
130.00333947019
 20
201.0536154229006
 30
0.0
 11
130.00333947019
 21
209.9175066410505
 31
0.0
  0
LINE
  5
400
330
CC
100
AcDbEntity
  8
DEFAULT
  6
Continuous
 62
   136
370
    -2
100
AcDbLine
 10
120.00333947019
 20
208.4175066410505
 30
0.0
 11
117.00333947019
 21
208.4175066410505
 31
0.0
  0
LINE
  5
401
330
CC
100
AcDbEntity
  8
DEFAULT
  6
Continuous
 62
   136
370
    -2
100
AcDbLine
 10
133.00333947019
 20
208.4175066410505
 30
0.0
 11
136.00333947019
 21
208.4175066410505
 31
0.0
  0
LINE
  5
402
330
CC
100
AcDbEntity
  8
DEFAULT
  6
Continuous
 62
   136
370
    -2
100
AcDbLine
 10
123.00333947019
 20
208.4175066410505
 30
0.0
 11
130.00333947019
 21
208.4175066410505
 31
0.0
  0
INSERT
  5
403
330
CC
100
AcDbEntity
  8
DEFAULT
  6
Continuous
 62
   136
370
    -2
100
AcDbBlockReference
  2
_SE_FILLED
 10
123.00333947019
 20
208.4175066410505
 30
0.0
 41
3.0
 42
3.0
 43
3.0
  0
INSERT
  5
404
330
CC
100
AcDbEntity
  8
DEFAULT
  6
Continuous
 62
   136
370
    -2
100
AcDbBlockReference
  2
_SE_FILLED
 10
130.00333947019
 20
208.4175066410505
 30
0.0
 41
3.0
 42
3.0
 43
3.0
 50
180.0
  0
MTEXT
  5
405
330
CC
100
AcDbEntity
  8
DEFAULT
  6
Continuous
 62
   136
370
     0
100
AcDbMText
 10
126.50333947019
 20
211.4175066410505
 30
0.0
 40
3.0
 41
0.0
 71
     5
 72
     1
  1
\A1;\A1;7
  7
seiso_ttf
 73
     1
 44
1.0
1001
ACAD
1000
MTEXTBEGIN
1070
    73
1070
     1
1070
    44
1040
1.0
1070
    74
1070
     0
1000
MTEXTEND
  0
POINT
  5
406
330
CC
100
AcDbEntity
  8
DEFPOINTS
  6
Continuous
 62
     0
370
     0
100
AcDbPoint
 10
123.00333947019
 20
173.8921531795465
 30
0.0
  0
POINT
  5
407
330
CC
100
AcDbEntity
  8
DEFPOINTS
  6
Continuous
 62
     0
370
     0
100
AcDbPoint
 10
130.00333947019
 20
201.0536154229006
 30
0.0
  0
POINT
  5
408
330
CC
100
AcDbEntity
  8
DEFPOINTS
  6
Continuous
 62
     0
370
     0
100
AcDbPoint
 10
130.00333947019
 20
208.4175066410505
 30
0.0
  0
ENDBLK
  5
243
330
CC
100
AcDbEntity
  8
DEFAULT
 62
     0
 48
0.0
370
     0
100
AcDbBlockEnd
  0
BLOCK
  5
244
330
CE
100
AcDbEntity
  8
DEFAULT
 62
     1
 48
0.0
370
     0
100
AcDbBlockBegin
  2
SE16
 70
     0
 10
0.0
 20
0.0
 30
0.0
  3
SE16
  1

  0
HATCH
  5
245
330
CE
100
AcDbEntity
  8
DEFAULT
  6
Continuous
 62
   136
100
AcDbHatch
 10
0.0
 20
0.0
 30
0.0
210
0.0
220
0.0
230
1.0
  2
SOLID
 70
     1
 71
     0
 91
        1
 92
        1
 93
        3
 72
     1
 10
133.0033394962671
 20
208.9175066562802
 11
130.00333947019
 21
208.417506651934
 72
     1
 10
130.00333947019
 20
208.417506651934
 11
133.0033394962671
 21
207.9175066475879
 72
     1
 10
133.0033394962671
 20
207.9175066475879
 11
133.0033394962671
 21
208.9175066562802
 97
        0
 75
     0
 76
     1
 98
        1
 10
0.0
 20
0.0
  0
HATCH
  5
246
330
CE
100
AcDbEntity
  8
DEFAULT
  6
Continuous
 62
   136
100
AcDbHatch
 10
0.0
 20
0.0
 30
0.0
210
0.0
220
0.0
230
1.0
  2
SOLID
 70
     1
 71
     0
 91
        1
 92
        1
 93
        3
 72
     1
 10
150.003339444113
 20
208.9175066562802
 11
153.00333947019
 21
208.417506651934
 72
     1
 10
153.00333947019
 20
208.417506651934
 11
150.003339444113
 21
207.9175066475879
 72
     1
 10
150.003339444113
 20
207.9175066475879
 11
150.003339444113
 21
208.9175066562802
 97
        0
 75
     0
 76
     1
 98
        1
 10
0.0
 20
0.0
  0
LINE
  5
247
330
CE
100
AcDbEntity
  8
DEFAULT
  6
Continuous
 62
   136
370
     0
100
AcDbLine
 10
130.00333947019
 20
201.0536154229006
 30
0.0
 11
130.00333947019
 21
209.9175066649725
 31
0.0
  0
LINE
  5
248
330
CE
100
AcDbEntity
  8
DEFAULT
  6
Continuous
 62
   136
370
     0
100
AcDbLine
 10
153.00333947019
 20
202.3921531795465
 30
0.0
 11
153.00333947019
 21
209.9175066649725
 31
0.0
  0
LINE
  5
249
330
CE
100
AcDbEntity
  8
DEFAULT
  6
Continuous
 62
   136
370
     0
100
AcDbLine
 10
130.00333947019
 20
208.417506651934
 30
0.0
 11
153.0033395148935
 21
208.417506651934
 31
0.0
  0
TEXT
  5
24A
330
CE
100
AcDbEntity
  8
DEFAULT
  6
Continuous
 62
   136
370
     0
100
AcDbText
 10
139.7987940379963
 20
209.167506651934
 30
0.0
 40
3.0
  1
23
  7
seiso_ttf
 11
139.7987940379963
 21
212.167506651934
 31
0.0
100
AcDbText
 73
     3
  0
ENDBLK
  5
30D
330
CE
100
AcDbEntity
  8
0
370
     0
100
AcDbBlockEnd
  0
BLOCK
  5
30E
330
D1
100
AcDbEntity
  8
0
370
     0
100
AcDbBlockBegin
  2
DMBLK97
 70
     0
 10
0.0
 20
0.0
 30
0.0
  3
DMBLK97
  1

  0
LINE
  5
409
330
D1
100
AcDbEntity
  8
DEFAULT
  6
Continuous
 62
   136
370
    -2
100
AcDbLine
 10
130.00333947019
 20
201.0536154229006
 30
0.0
 11
130.00333947019
 21
209.917506651934
 31
0.0
  0
LINE
  5
40A
330
D1
100
AcDbEntity
  8
DEFAULT
  6
Continuous
 62
   136
370
    -2
100
AcDbLine
 10
153.00333947019
 20
202.3921531795465
 30
0.0
 11
153.00333947019
 21
209.917506651934
 31
0.0
  0
LINE
  5
40B
330
D1
100
AcDbEntity
  8
DEFAULT
  6
Continuous
 62
   136
370
    -2
100
AcDbLine
 10
133.00333947019
 20
208.417506651934
 30
0.0
 11
150.00333947019
 21
208.417506651934
 31
0.0
  0
INSERT
  5
40C
330
D1
100
AcDbEntity
  8
DEFAULT
  6
Continuous
 62
   136
370
    -2
100
AcDbBlockReference
  2
_SE_FILLED
 10
130.00333947019
 20
208.417506651934
 30
0.0
 41
3.0
 42
3.0
 43
3.0
 50
180.0
  0
INSERT
  5
40D
330
D1
100
AcDbEntity
  8
DEFAULT
  6
Continuous
 62
   136
370
    -2
100
AcDbBlockReference
  2
_SE_FILLED
 10
153.00333947019
 20
208.417506651934
 30
0.0
 41
3.0
 42
3.0
 43
3.0
  0
MTEXT
  5
40E
330
D1
100
AcDbEntity
  8
DEFAULT
  6
Continuous
 62
   136
370
     0
100
AcDbMText
 10
141.5033394925418
 20
211.417506651934
 30
0.0
 40
3.0
 41
0.0
 71
     5
 72
     1
  1
\A1;\A1;23
  7
seiso_ttf
 73
     1
 44
1.0
1001
ACAD
1000
MTEXTBEGIN
1070
    73
1070
     1
1070
    44
1040
1.0
1070
    74
1070
     0
1000
MTEXTEND
  0
POINT
  5
40F
330
D1
100
AcDbEntity
  8
DEFPOINTS
  6
Continuous
 62
     0
370
     0
100
AcDbPoint
 10
130.00333947019
 20
201.0536154229006
 30
0.0
  0
POINT
  5
410
330
D1
100
AcDbEntity
  8
DEFPOINTS
  6
Continuous
 62
     0
370
     0
100
AcDbPoint
 10
153.00333947019
 20
202.3921531795465
 30
0.0
  0
POINT
  5
411
330
D1
100
AcDbEntity
  8
DEFPOINTS
  6
Continuous
 62
     0
370
     0
100
AcDbPoint
 10
153.00333947019
 20
208.417506651934
 30
0.0
  0
ENDBLK
  5
24E
330
D1
100
AcDbEntity
  8
DEFAULT
 62
     0
 48
0.0
370
     0
100
AcDbBlockEnd
  0
BLOCK
  5
24F
330
D3
100
AcDbEntity
  8
DEFAULT
 62
     1
 48
0.0
370
     0
100
AcDbBlockBegin
  2
SE17
 70
     0
 10
0.0
 20
0.0
 30
0.0
  3
SE17
  1

  0
LINE
  5
250
330
D3
100
AcDbEntity
  8
DEFAULT
  6
Continuous
 62
   136
370
     0
100
AcDbLine
 10
127.2554774978316
 20
136.5707451251086
 30
0.0
 11
134.7512014019321
 21
144.6214669462991
 31
0.0
  0
LINE
  5
251
330
D3
100
AcDbEntity
  8
DEFAULT
  6
Continuous
 62
   136
370
     0
100
AcDbLine
 10
134.7512014425485
 20
144.6214669899228
 30
0.0
 11
145.9997894573198
 21
156.7029222498425
 31
0.0
  0
HATCH
  5
252
330
D3
100
AcDbEntity
  8
DEFAULT
  6
Continuous
 62
   136
100
AcDbHatch
 10
0.0
 20
0.0
 30
0.0
210
0.0
220
0.0
230
1.0
  2
SOLID
 70
     1
 71
     0
 91
        1
 92
        1
 93
        3
 72
     1
 10
128.9338239580334
 20
139.107111289592
 11
127.2554774978315
 21
136.5707451251086
 72
     1
 10
127.2554774978316
 20
136.5707451251086
 11
129.6657077702874
 21
138.4256818341491
 72
     1
 10
129.6657077702874
 20
138.4256818341491
 11
128.9338239580334
 21
139.107111289592
 97
        0
 75
     0
 76
     1
 98
        1
 10
0.0
 20
0.0
  0
HATCH
  5
253
330
D3
100
AcDbEntity
  8
DEFAULT
  6
Continuous
 62
   136
100
AcDbHatch
 10
0.0
 20
0.0
 30
0.0
210
0.0
220
0.0
230
1.0
  2
SOLID
 70
     1
 71
     0
 91
        1
 92
        1
 93
        3
 72
     1
 10
132.3409711700927
 20
142.7665302808823
 11
134.7512014425485
 21
144.6214669899228
 72
     1
 10
134.7512014425485
 20
144.6214669899228
 11
133.0728549823466
 21
142.0851008254394
 72
     1
 10
133.0728549823466
 20
142.0851008254394
 11
132.3409711700926
 21
142.7665302808823
 97
        0
 75
     0
 76
     1
 98
        1
 10
0.0
 20
0.0
  0
TEXT
  5
254
330
D3
100
AcDbEntity
  8
DEFAULT
  6
Continuous
 62
   136
370
     0
100
AcDbText
 10
139.5598129775141
 20
150.8867449497715
 30
0.0
 40
3.0
  1
O
 50
47.04455349348529
  7
semeci1_ttf
 11
137.3641615598375
 21
152.9310332983307
 31
0.0
100
AcDbText
 73
     3
  0
TEXT
  5
255
330
D3
100
AcDbEntity
  8
DEFAULT
  6
Continuous
 62
   136
370
     0
100
AcDbText
 10
143.0627769424687
 20
154.6490751519387
 30
0.0
 40
3.0
  1
11
 50
47.04455349348529
  7
seiso_ttf
 11
140.8671255247921
 21
156.6933635004979
 31
0.0
100
AcDbText
 73
     3
  0
ENDBLK
  5
30F
330
D3
100
AcDbEntity
  8
0
370
     0
100
AcDbBlockEnd
  0
BLOCK
  5
310
330
D6
100
AcDbEntity
  8
0
370
     0
100
AcDbBlockBegin
  2
DMBLK98
 70
     0
 10
0.0
 20
0.0
 30
0.0
  3
DMBLK98
  1

  0
LINE
  5
412
330
D6
100
AcDbEntity
  8
DEFAULT
  6
Continuous
 62
   136
370
    -2
100
AcDbLine
 10
129.2997658463907
 20
138.7663965427852
 30
0.0
 11
132.7069130939893
 21
142.4258155722462
 31
0.0
  0
MTEXT
  5
413
102
{ACAD_XDICTIONARY
360
678
102
}
330
D6
100
AcDbEntity
  8
DEFAULT
  6
Continuous
 62
   136
370
     0
100
AcDbMText
 10
139.3932249099375
 20
149.6071948664449
 30
0.0
 40
3.0
 41
0.0
 71
     5
 72
     1
  1
\A1;\A1;\U+220511
  7
seiso_ttf
 73
     1
 44
1.0
1001
ACAD
1000
MTEXTBEGIN
1070
    73
1070
     1
1070
    44
1040
1.0
1070
    74
1070
     0
1000
MTEXTEND
  0
INSERT
  5
414
330
D6
100
AcDbEntity
  8
DEFAULT
  6
Continuous
 62
   136
370
    -2
100
AcDbBlockReference
  2
_SE_FILLED
 10
127.2554774978316
 20
136.5707451251086
 30
0.0
 41
3.0
 42
3.0
 43
3.0
 50
227.0445534934853
  0
INSERT
  5
415
330
D6
100
AcDbEntity
  8
DEFAULT
  6
Continuous
 62
   136
370
    -2
100
AcDbBlockReference
  2
_SE_FILLED
 10
134.7512014425485
 20
144.6214669899228
 30
0.0
 41
3.0
 42
3.0
 43
3.0
 50
47.04455349348534
  0
POINT
  5
416
330
D6
100
AcDbEntity
  8
DEFPOINTS
  6
Continuous
 62
     0
370
     0
100
AcDbPoint
 10
134.7512014425485
 20
144.6214669899228
 30
0.0
  0
POINT
  5
417
330
D6
100
AcDbEntity
  8
DEFPOINTS
  6
Continuous
 62
     0
370
     0
100
AcDbPoint
 10
127.2554774978316
 20
136.5707451251086
 30
0.0
  0
ENDBLK
  5
259
330
D6
100
AcDbEntity
  8
DEFAULT
 62
     0
 48
0.0
370
     0
100
AcDbBlockEnd
  0
BLOCK
  5
25A
330
D8
100
AcDbEntity
  8
DEFAULT
 62
     1
 48
0.0
370
     0
100
AcDbBlockBegin
  2
SE18
 70
     0
 10
0.0
 20
0.0
 30
0.0
  3
SE18
  1

  0
LINE
  5
25B
330
D8
100
AcDbEntity
  8
DEFAULT
  6
Continuous
 62
   136
370
     0
100
AcDbLine
 10
125.5483558463874
 20
115.437571878284
 30
0.0
 11
132.7177628660154
 21
106.4459311213921
 31
0.0
  0
LINE
  5
25C
330
D8
100
AcDbEntity
  8
DEFAULT
  6
Continuous
 62
   136
370
     0
100
AcDbLine
 10
132.717762884595
 20
106.4459310980902
 30
0.0
 11
145.5119625995035
 21
90.39985541938555
 31
0.0
  0
HATCH
  5
25D
330
D8
100
AcDbEntity
  8
DEFAULT
  6
Continuous
 62
   136
100
AcDbHatch
 10
0.0
 20
0.0
 30
0.0
210
0.0
220
0.0
230
1.0
  2
SOLID
 70
     1
 71
     0
 91
        1
 92
        1
 93
        3
 72
     1
 10
127.8095768561982
 20
113.4036397983958
 11
129.2889160557851
 21
110.7462810169411
 72
     1
 10
129.2889160557851
 20
110.7462810169411
 11
127.0276950459744
 21
112.7802130968294
 72
     1
 10
127.0276950459743
 20
112.7802130968295
 11
127.8095768561982
 21
113.4036397983958
 97
        0
 75
     0
 76
     1
 98
        1
 10
0.0
 20
0.0
  0
HATCH
  5
25E
330
D8
100
AcDbEntity
  8
DEFAULT
  6
Continuous
 62
   136
100
AcDbHatch
 10
0.0
 20
0.0
 30
0.0
210
0.0
220
0.0
230
1.0
  2
SOLID
 70
     1
 71
     0
 91
        1
 92
        1
 93
        3
 72
     1
 10
134.9789838944057
 20
104.4119990182019
 11
132.7177628845949
 21
106.4459310980902
 72
     1
 10
132.717762884595
 20
106.4459310980902
 11
134.1971020841819
 21
103.7885723166356
 72
     1
 10
134.1971020841819
 20
103.7885723166356
 11
134.9789838944057
 21
104.4119990182019
 97
        0
 75
     0
 76
     1
 98
        1
 10
0.0
 20
0.0
  0
TEXT
  5
25F
330
D8
100
AcDbEntity
  8
DEFAULT
  6
Continuous
 62
   136
370
     0
100
AcDbText
 10
141.0913098674676
 20
97.14712491625856
 30
0.0
 40
3.0
  1
O
 50
308.5668040779714
  7
semeci1_ttf
 11
143.4369552777499
 21
99.01740500470028
 31
0.0
100
AcDbText
 73
     3
  0
TEXT
  5
260
330
D8
100
AcDbEntity
  8
DEFAULT
  6
Continuous
 62
   136
370
     0
100
AcDbText
 10
144.2961042198891
 20
93.12777444029887
 30
0.0
 40
3.0
  1
6
 50
308.5668040779714
  7
seiso_ttf
 11
146.6417496301715
 21
94.99805452874058
 31
0.0
100
AcDbText
 73
     3
  0
ENDBLK
  5
311
330
D8
100
AcDbEntity
  8
0
370
     0
100
AcDbBlockEnd
  0
BLOCK
  5
312
330
DB
100
AcDbEntity
  8
0
370
     0
100
AcDbBlockBegin
  2
DMBLK99
 70
     0
 10
0.0
 20
0.0
 30
0.0
  3
DMBLK99
  1

  0
LINE
  5
418
330
DB
100
AcDbEntity
  8
DEFAULT
  6
Continuous
 62
   136
370
    -2
100
AcDbLine
 10
127.4186359673433
 20
113.0919264272234
 30
0.0
 11
125.5483558789016
 21
115.4375718375057
 31
0.0
  0
LINE
  5
419
330
DB
100
AcDbEntity
  8
DEFAULT
  6
Continuous
 62
   136
370
    -2
100
AcDbLine
 10
134.5880429730367
 20
104.100285687808
 30
0.0
 11
136.4583230614784
 21
101.7546402775257
 31
0.0
  0
MTEXT
  5
41A
102
{ACAD_XDICTIONARY
360
67A
102
}
330
DB
100
AcDbEntity
  8
DEFAULT
  6
Continuous
 62
   136
370
     0
100
AcDbMText
 10
139.8503004839424
 20
97.50053078774696
 30
0.0
 40
3.0
 41
0.0
 71
     5
 72
     1
  1
\A1;\A1;\U+22056
  7
seiso_ttf
 73
     1
 44
1.0
1001
ACAD
1000
MTEXTBEGIN
1070
    73
1070
     1
1070
    44
1040
1.0
1070
    74
1070
     0
1000
MTEXTEND
  0
LINE
  5
41B
330
DB
100
AcDbEntity
  8
DEFAULT
  6
Continuous
 62
   136
370
    -2
100
AcDbLine
 10
129.2889160557851
 20
110.7462810169411
 30
0.0
 11
132.717762884595
 21
106.4459310980902
 31
0.0
  0
INSERT
  5
41C
330
DB
100
AcDbEntity
  8
DEFAULT
  6
Continuous
 62
   136
370
    -2
100
AcDbBlockReference
  2
_SE_FILLED
 10
129.2889160557851
 20
110.7462810169411
 30
0.0
 41
3.0
 42
3.0
 43
3.0
 50
308.5668040779719
  0
INSERT
  5
41D
330
DB
100
AcDbEntity
  8
DEFAULT
  6
Continuous
 62
   136
370
    -2
100
AcDbBlockReference
  2
_SE_FILLED
 10
132.717762884595
 20
106.4459310980902
 30
0.0
 41
3.0
 42
3.0
 43
3.0
 50
128.5668040779719
  0
POINT
  5
41E
330
DB
100
AcDbEntity
  8
DEFPOINTS
  6
Continuous
 62
     0
370
     0
100
AcDbPoint
 10
132.717762884595
 20
106.4459310980902
 30
0.0
  0
POINT
  5
41F
330
DB
100
AcDbEntity
  8
DEFPOINTS
  6
Continuous
 62
     0
370
     0
100
AcDbPoint
 10
129.2889160557851
 20
110.7462810169411
 30
0.0
  0
ENDBLK
  5
264
330
DB
100
AcDbEntity
  8
DEFAULT
 62
     0
 48
0.0
370
     0
100
AcDbBlockEnd
  0
BLOCK
  5
265
330
DD
100
AcDbEntity
  8
DEFAULT
 62
     1
 48
0.0
370
     0
100
AcDbBlockBegin
  2
SE19
 70
     0
 10
0.0
 20
0.0
 30
0.0
  3
SE19
  1

  0
HATCH
  5
266
330
DD
100
AcDbEntity
  8
DEFAULT
  6
Continuous
 62
   136
100
AcDbHatch
 10
0.0
 20
0.0
 30
0.0
210
0.0
220
0.0
230
1.0
  2
SOLID
 70
     1
 71
     0
 91
        1
 92
        1
 93
        3
 72
     1
 10
119.2389565186076
 20
97.59610603143869
 11
119.7389565229537
 21
100.5961060575157
 72
     1
 10
119.7389565229537
 20
100.5961060575157
 11
120.2389565272999
 21
97.59610603143869
 72
     1
 10
120.2389565272999
 20
97.59610603143869
 11
119.2389565186076
 21
97.59610603143869
 97
        0
 75
     0
 76
     1
 98
        1
 10
0.0
 20
0.0
  0
HATCH
  5
267
330
DD
100
AcDbEntity
  8
DEFAULT
  6
Continuous
 62
   136
100
AcDbHatch
 10
0.0
 20
0.0
 30
0.0
210
0.0
220
0.0
230
1.0
  2
SOLID
 70
     1
 71
     0
 91
        1
 92
        1
 93
        3
 72
     1
 10
119.2389565186076
 20
111.5961060835927
 11
119.7389565229537
 21
108.5961060575157
 72
     1
 10
119.7389565229537
 20
108.5961060575157
 11
120.2389565272999
 21
111.5961060835927
 72
     1
 10
120.2389565272999
 20
111.5961060835927
 11
119.2389565186076
 21
111.5961060835927
 97
        0
 75
     0
 76
     1
 98
        1
 10
0.0
 20
0.0
  0
LINE
  5
268
330
DD
100
AcDbEntity
  8
DEFAULT
  6
Continuous
 62
   136
370
     0
100
AcDbLine
 10
123.00333947019
 20
100.5961060575157
 30
0.0
 11
118.2389565099152
 21
100.5961060575157
 31
0.0
  0
LINE
  5
269
330
DD
100
AcDbEntity
  8
DEFAULT
  6
Continuous
 62
   136
370
     0
100
AcDbLine
 10
131.00333947019
 20
108.5961060575157
 30
0.0
 11
118.2389565099152
 21
108.5961060575157
 31
0.0
  0
LINE
  5
26A
330
DD
100
AcDbEntity
  8
DEFAULT
  6
Continuous
 62
   136
370
     0
100
AcDbLine
 10
119.7389565229537
 20
94.59610600536164
 30
0.0
 11
119.7389565229537
 21
114.5961064896494
 31
0.0
  0
TEXT
  5
26B
330
DD
100
AcDbEntity
  8
DEFAULT
  6
Continuous
 62
   136
370
     0
100
AcDbText
 10
118.9889565229537
 20
103.64156079296
 30
0.0
 40
3.0
  1
8
 50
90.0
  7
seiso_ttf
 11
115.9889565229537
 21
103.64156079296
 31
0.0
100
AcDbText
 73
     3
  0
ENDBLK
  5
313
330
DD
100
AcDbEntity
  8
0
370
     0
100
AcDbBlockEnd
  0
BLOCK
  5
314
330
E0
100
AcDbEntity
  8
0
370
     0
100
AcDbBlockBegin
  2
DMBLK100
 70
     0
 10
0.0
 20
0.0
 30
0.0
  3
DMBLK100
  1

  0
LINE
  5
420
330
E0
100
AcDbEntity
  8
DEFAULT
  6
Continuous
 62
   136
370
    -2
100
AcDbLine
 10
123.00333947019
 20
100.5961060575157
 30
0.0
 11
118.2389565229538
 21
100.5961060575157
 31
0.0
  0
LINE
  5
421
330
E0
100
AcDbEntity
  8
DEFAULT
  6
Continuous
 62
   136
370
    -2
100
AcDbLine
 10
131.00333947019
 20
108.5961060575157
 30
0.0
 11
118.2389565229538
 21
108.5961060575157
 31
0.0
  0
LINE
  5
422
330
E0
100
AcDbEntity
  8
DEFAULT
  6
Continuous
 62
   136
370
    -2
100
AcDbLine
 10
119.7389565229538
 20
97.59610605751571
 30
0.0
 11
119.7389565229537
 21
94.59610605751571
 31
0.0
  0
LINE
  5
423
330
E0
100
AcDbEntity
  8
DEFAULT
  6
Continuous
 62
   136
370
    -2
100
AcDbLine
 10
119.7389565229538
 20
111.5961060575157
 30
0.0
 11
119.7389565229538
 21
114.5961060575157
 31
0.0
  0
LINE
  5
424
330
E0
100
AcDbEntity
  8
DEFAULT
  6
Continuous
 62
   136
370
    -2
100
AcDbLine
 10
119.7389565229538
 20
100.5961060575157
 30
0.0
 11
119.7389565229538
 21
108.5961060575157
 31
0.0
  0
INSERT
  5
425
330
E0
100
AcDbEntity
  8
DEFAULT
  6
Continuous
 62
   136
370
    -2
100
AcDbBlockReference
  2
_SE_FILLED
 10
119.7389565229538
 20
100.5961060575157
 30
0.0
 41
3.0
 42
3.0
 43
3.0
 50
90.0
  0
INSERT
  5
426
330
E0
100
AcDbEntity
  8
DEFAULT
  6
Continuous
 62
   136
370
    -2
100
AcDbBlockReference
  2
_SE_FILLED
 10
119.7389565229538
 20
108.5961060575157
 30
0.0
 41
3.0
 42
3.0
 43
3.0
 50
270.0
  0
MTEXT
  5
427
330
E0
100
AcDbEntity
  8
DEFAULT
  6
Continuous
 62
   136
370
     0
100
AcDbMText
 10
116.7389565229537
 20
104.5961060575157
 30
0.0
 40
3.0
 41
0.0
 71
     5
 72
     1
  1
\A1;\A1;8
  7
seiso_ttf
 11
0.0000000000000001
 21
1.0
 31
0.0
 73
     1
 44
1.0
1001
ACAD
1000
MTEXTBEGIN
1070
    73
1070
     1
1070
    44
1040
1.0
1070
    74
1070
     0
1000
MTEXTEND
  0
POINT
  5
428
330
E0
100
AcDbEntity
  8
DEFPOINTS
  6
Continuous
 62
     0
370
     0
100
AcDbPoint
 10
123.00333947019
 20
100.5961060575157
 30
0.0
  0
POINT
  5
429
330
E0
100
AcDbEntity
  8
DEFPOINTS
  6
Continuous
 62
     0
370
     0
100
AcDbPoint
 10
131.00333947019
 20
108.5961060575157
 30
0.0
  0
POINT
  5
42A
330
E0
100
AcDbEntity
  8
DEFPOINTS
  6
Continuous
 62
     0
370
     0
100
AcDbPoint
 10
119.7389565229538
 20
108.5961060575157
 30
0.0
  0
ENDBLK
  5
26F
330
E0
100
AcDbEntity
  8
DEFAULT
 62
     0
 48
0.0
370
     0
100
AcDbBlockEnd
  0
BLOCK
  5
270
330
E2
100
AcDbEntity
  8
DEFAULT
 62
     1
 48
0.0
370
     0
100
AcDbBlockBegin
  2
SE20
 70
     0
 10
0.0
 20
0.0
 30
0.0
  3
SE20
  1

  0
HATCH
  5
271
330
E2
100
AcDbEntity
  8
DEFAULT
  6
Continuous
 62
   136
100
AcDbHatch
 10
0.0
 20
0.0
 30
0.0
210
0.0
220
0.0
230
1.0
  2
SOLID
 70
     1
 71
     0
 91
        1
 92
        1
 93
        3
 72
     1
 10
119.2389566042892
 20
111.5961060835927
 11
119.7389566086354
 21
108.5961060575157
 72
     1
 10
119.7389566086354
 20
108.5961060575157
 11
120.2389566129816
 21
111.5961060835927
 72
     1
 10
120.2389566129816
 20
111.5961060835927
 11
119.2389566042892
 21
111.5961060835927
 97
        0
 75
     0
 76
     1
 98
        1
 10
0.0
 20
0.0
  0
HATCH
  5
272
330
E2
100
AcDbEntity
  8
DEFAULT
  6
Continuous
 62
   136
100
AcDbHatch
 10
0.0
 20
0.0
 30
0.0
210
0.0
220
0.0
230
1.0
  2
SOLID
 70
     1
 71
     0
 91
        1
 92
        1
 93
        3
 72
     1
 10
119.2389566042892
 20
137.5961060314387
 11
119.7389566086354
 21
140.5961060575157
 72
     1
 10
119.7389566086354
 20
140.5961060575157
 11
120.2389566129816
 21
137.5961060314387
 72
     1
 10
120.2389566129816
 20
137.5961060314387
 11
119.2389566042892
 21
137.5961060314387
 97
        0
 75
     0
 76
     1
 98
        1
 10
0.0
 20
0.0
  0
LINE
  5
273
330
E2
100
AcDbEntity
  8
DEFAULT
  6
Continuous
 62
   136
370
     0
100
AcDbLine
 10
131.00333947019
 20
108.5961060575157
 30
0.0
 11
118.2389565955969
 21
108.5961060575157
 31
0.0
  0
LINE
  5
274
330
E2
100
AcDbEntity
  8
DEFAULT
  6
Continuous
 62
   136
370
     0
100
AcDbLine
 10
131.00333947019
 20
140.5961060575157
 30
0.0
 11
118.2389565955969
 21
140.5961060575157
 31
0.0
  0
LINE
  5
275
330
E2
100
AcDbEntity
  8
DEFAULT
  6
Continuous
 62
   136
370
     0
100
AcDbLine
 10
119.7389566086354
 20
108.5961060575157
 30
0.0
 11
119.7389566086354
 21
140.5961075774341
 31
0.0
  0
TEXT
  5
276
330
E2
100
AcDbEntity
  8
DEFAULT
  6
Continuous
 62
   136
370
     0
100
AcDbText
 10
118.9889566086354
 20
122.8915613629295
 30
0.0
 40
3.0
  1
32
 50
90.0
  7
seiso_ttf
 11
115.9889566086354
 21
122.8915613629295
 31
0.0
100
AcDbText
 73
     3
  0
ENDBLK
  5
315
330
E2
100
AcDbEntity
  8
0
370
     0
100
AcDbBlockEnd
  0
BLOCK
  5
316
330
E5
100
AcDbEntity
  8
0
370
     0
100
AcDbBlockBegin
  2
DMBLK101
 70
     0
 10
0.0
 20
0.0
 30
0.0
  3
DMBLK101
  1

  0
LINE
  5
42B
330
E5
100
AcDbEntity
  8
DEFAULT
  6
Continuous
 62
   136
370
    -2
100
AcDbLine
 10
131.00333947019
 20
108.5961060575157
 30
0.0
 11
118.2389566086354
 21
108.5961060575157
 31
0.0
  0
LINE
  5
42C
330
E5
100
AcDbEntity
  8
DEFAULT
  6
Continuous
 62
   136
370
    -2
100
AcDbLine
 10
131.00333947019
 20
140.5961060575157
 30
0.0
 11
118.2389566086354
 21
140.5961060575157
 31
0.0
  0
LINE
  5
42D
330
E5
100
AcDbEntity
  8
DEFAULT
  6
Continuous
 62
   136
370
    -2
100
AcDbLine
 10
119.7389566086354
 20
111.5961060575157
 30
0.0
 11
119.7389566086354
 21
137.5961060575157
 31
0.0
  0
INSERT
  5
42E
330
E5
100
AcDbEntity
  8
DEFAULT
  6
Continuous
 62
   136
370
    -2
100
AcDbBlockReference
  2
_SE_FILLED
 10
119.7389566086354
 20
108.5961060575157
 30
0.0
 41
3.0
 42
3.0
 43
3.0
 50
270.0
  0
INSERT
  5
42F
330
E5
100
AcDbEntity
  8
DEFAULT
  6
Continuous
 62
   136
370
    -2
100
AcDbBlockReference
  2
_SE_FILLED
 10
119.7389566086354
 20
140.5961060575157
 30
0.0
 41
3.0
 42
3.0
 43
3.0
 50
90.0
  0
MTEXT
  5
430
330
E5
100
AcDbEntity
  8
DEFAULT
  6
Continuous
 62
   136
370
     0
100
AcDbMText
 10
116.7389566086354
 20
124.5961068174749
 30
0.0
 40
3.0
 41
0.0
 71
     5
 72
     1
  1
\A1;\A1;32
  7
seiso_ttf
 11
0.0000000000000001
 21
1.0
 31
0.0
 73
     1
 44
1.0
1001
ACAD
1000
MTEXTBEGIN
1070
    73
1070
     1
1070
    44
1040
1.0
1070
    74
1070
     0
1000
MTEXTEND
  0
POINT
  5
431
330
E5
100
AcDbEntity
  8
DEFPOINTS
  6
Continuous
 62
     0
370
     0
100
AcDbPoint
 10
131.00333947019
 20
108.5961060575157
 30
0.0
  0
POINT
  5
432
330
E5
100
AcDbEntity
  8
DEFPOINTS
  6
Continuous
 62
     0
370
     0
100
AcDbPoint
 10
131.00333947019
 20
140.5961060575157
 30
0.0
  0
POINT
  5
433
330
E5
100
AcDbEntity
  8
DEFPOINTS
  6
Continuous
 62
     0
370
     0
100
AcDbPoint
 10
119.7389566086354
 20
140.5961060575157
 30
0.0
  0
ENDBLK
  5
27A
330
E5
100
AcDbEntity
  8
DEFAULT
 62
     0
 48
0.0
370
     0
100
AcDbBlockEnd
  0
BLOCK
  5
27B
330
E7
100
AcDbEntity
  8
DEFAULT
 62
     1
 48
0.0
370
     0
100
AcDbBlockBegin
  2
SE21
 70
     0
 10
0.0
 20
0.0
 30
0.0
  3
SE21
  1

  0
HATCH
  5
27C
330
E7
100
AcDbEntity
  8
DEFAULT
  6
Continuous
 62
   136
100
AcDbHatch
 10
0.0
 20
0.0
 30
0.0
210
0.0
220
0.0
230
1.0
  2
SOLID
 70
     1
 71
     0
 91
        1
 92
        1
 93
        3
 72
     1
 10
119.2389566042892
 20
137.5961060314387
 11
119.7389566086354
 21
140.5961060575157
 72
     1
 10
119.7389566086354
 20
140.5961060575157
 11
120.2389566129816
 21
137.5961060314387
 72
     1
 10
120.2389566129816
 20
137.5961060314387
 11
119.2389566042892
 21
137.5961060314387
 97
        0
 75
     0
 76
     1
 98
        1
 10
0.0
 20
0.0
  0
HATCH
  5
27D
330
E7
100
AcDbEntity
  8
DEFAULT
  6
Continuous
 62
   136
100
AcDbHatch
 10
0.0
 20
0.0
 30
0.0
210
0.0
220
0.0
230
1.0
  2
SOLID
 70
     1
 71
     0
 91
        1
 92
        1
 93
        3
 72
     1
 10
119.2389566042892
 20
151.5961060835927
 11
119.7389566086354
 21
148.5961060575157
 72
     1
 10
119.7389566086354
 20
148.5961060575157
 11
120.2389566129816
 21
151.5961060835927
 72
     1
 10
120.2389566129816
 20
151.5961060835927
 11
119.2389566042892
 21
151.5961060835927
 97
        0
 75
     0
 76
     1
 98
        1
 10
0.0
 20
0.0
  0
LINE
  5
27E
330
E7
100
AcDbEntity
  8
DEFAULT
  6
Continuous
 62
   136
370
     0
100
AcDbLine
 10
131.00333947019
 20
140.5961060575157
 30
0.0
 11
118.2389565955969
 21
140.5961060575157
 31
0.0
  0
LINE
  5
27F
330
E7
100
AcDbEntity
  8
DEFAULT
  6
Continuous
 62
   136
370
     0
100
AcDbLine
 10
123.00333947019
 20
148.5961060575157
 30
0.0
 11
118.2389565955969
 21
148.5961060575157
 31
0.0
  0
LINE
  5
280
330
E7
100
AcDbEntity
  8
DEFAULT
  6
Continuous
 62
   136
370
     0
100
AcDbLine
 10
119.7389566086354
 20
134.5961060053616
 30
0.0
 11
119.7389566086354
 21
154.5961064896494
 31
0.0
  0
TEXT
  5
281
330
E7
100
AcDbEntity
  8
DEFAULT
  6
Continuous
 62
   136
370
     0
100
AcDbText
 10
118.9889566086354
 20
143.64156079296
 30
0.0
 40
3.0
  1
8
 50
90.0
  7
seiso_ttf
 11
115.9889566086354
 21
143.64156079296
 31
0.0
100
AcDbText
 73
     3
  0
ENDBLK
  5
317
330
E7
100
AcDbEntity
  8
0
370
     0
100
AcDbBlockEnd
  0
BLOCK
  5
318
330
EA
100
AcDbEntity
  8
0
370
     0
100
AcDbBlockBegin
  2
DMBLK102
 70
     0
 10
0.0
 20
0.0
 30
0.0
  3
DMBLK102
  1

  0
LINE
  5
434
330
EA
100
AcDbEntity
  8
DEFAULT
  6
Continuous
 62
   136
370
    -2
100
AcDbLine
 10
131.00333947019
 20
140.5961060575157
 30
0.0
 11
118.2389566086354
 21
140.5961060575157
 31
0.0
  0
LINE
  5
435
330
EA
100
AcDbEntity
  8
DEFAULT
  6
Continuous
 62
   136
370
    -2
100
AcDbLine
 10
123.00333947019
 20
148.5961060575157
 30
0.0
 11
118.2389566086354
 21
148.5961060575157
 31
0.0
  0
LINE
  5
436
330
EA
100
AcDbEntity
  8
DEFAULT
  6
Continuous
 62
   136
370
    -2
100
AcDbLine
 10
119.7389566086354
 20
137.5961060575157
 30
0.0
 11
119.7389566086354
 21
134.5961060575157
 31
0.0
  0
LINE
  5
437
330
EA
100
AcDbEntity
  8
DEFAULT
  6
Continuous
 62
   136
370
    -2
100
AcDbLine
 10
119.7389566086354
 20
151.5961060575157
 30
0.0
 11
119.7389566086354
 21
154.5961060575157
 31
0.0
  0
LINE
  5
438
330
EA
100
AcDbEntity
  8
DEFAULT
  6
Continuous
 62
   136
370
    -2
100
AcDbLine
 10
119.7389566086354
 20
140.5961060575157
 30
0.0
 11
119.7389566086354
 21
148.5961060575157
 31
0.0
  0
INSERT
  5
439
330
EA
100
AcDbEntity
  8
DEFAULT
  6
Continuous
 62
   136
370
    -2
100
AcDbBlockReference
  2
_SE_FILLED
 10
119.7389566086354
 20
140.5961060575157
 30
0.0
 41
3.0
 42
3.0
 43
3.0
 50
90.0
  0
INSERT
  5
43A
330
EA
100
AcDbEntity
  8
DEFAULT
  6
Continuous
 62
   136
370
    -2
100
AcDbBlockReference
  2
_SE_FILLED
 10
119.7389566086354
 20
148.5961060575157
 30
0.0
 41
3.0
 42
3.0
 43
3.0
 50
270.0
  0
MTEXT
  5
43B
330
EA
100
AcDbEntity
  8
DEFAULT
  6
Continuous
 62
   136
370
     0
100
AcDbMText
 10
116.7389566086354
 20
144.5961060575157
 30
0.0
 40
3.0
 41
0.0
 71
     5
 72
     1
  1
\A1;\A1;8
  7
seiso_ttf
 11
0.0000000000000001
 21
1.0
 31
0.0
 73
     1
 44
1.0
1001
ACAD
1000
MTEXTBEGIN
1070
    73
1070
     1
1070
    44
1040
1.0
1070
    74
1070
     0
1000
MTEXTEND
  0
POINT
  5
43C
330
EA
100
AcDbEntity
  8
DEFPOINTS
  6
Continuous
 62
     0
370
     0
100
AcDbPoint
 10
131.00333947019
 20
140.5961060575157
 30
0.0
  0
POINT
  5
43D
330
EA
100
AcDbEntity
  8
DEFPOINTS
  6
Continuous
 62
     0
370
     0
100
AcDbPoint
 10
123.00333947019
 20
148.5961060575157
 30
0.0
  0
POINT
  5
43E
330
EA
100
AcDbEntity
  8
DEFPOINTS
  6
Continuous
 62
     0
370
     0
100
AcDbPoint
 10
119.7389566086354
 20
148.5961060575157
 30
0.0
  0
ENDBLK
  5
285
330
EA
100
AcDbEntity
  8
DEFAULT
 62
     0
 48
0.0
370
     0
100
AcDbBlockEnd
  0
BLOCK
  5
286
330
EC
100
AcDbEntity
  8
DEFAULT
 62
     1
 48
0.0
370
     0
100
AcDbBlockBegin
  2
SE22
 70
     0
 10
0.0
 20
0.0
 30
0.0
  3
SE22
  1

  0
HATCH
  5
287
330
EC
100
AcDbEntity
  8
DEFAULT
  6
Continuous
 62
   136
100
AcDbHatch
 10
0.0
 20
0.0
 30
0.0
210
0.0
220
0.0
230
1.0
  2
SOLID
 70
     1
 71
     0
 91
        1
 92
        1
 93
        3
 72
     1
 10
113.662629541146
 20
145.5961060314387
 11
114.1626295454922
 21
148.5961060575157
 72
     1
 10
114.1626295454922
 20
148.5961060575157
 11
114.6626295498383
 21
145.5961060314387
 72
     1
 10
114.6626295498383
 20
145.5961060314387
 11
113.662629541146
 21
145.5961060314387
 97
        0
 75
     0
 76
     1
 98
        1
 10
0.0
 20
0.0
  0
HATCH
  5
288
330
EC
100
AcDbEntity
  8
DEFAULT
  6
Continuous
 62
   136
100
AcDbHatch
 10
0.0
 20
0.0
 30
0.0
210
0.0
220
0.0
230
1.0
  2
SOLID
 70
     1
 71
     0
 91
        1
 92
        1
 93
        3
 72
     1
 10
113.662629541146
 20
103.5961060835927
 11
114.1626295454922
 21
100.5961060575157
 72
     1
 10
114.1626295454922
 20
100.5961060575157
 11
114.6626295498383
 21
103.5961060835927
 72
     1
 10
114.6626295498383
 20
103.5961060835927
 11
113.662629541146
 21
103.5961060835927
 97
        0
 75
     0
 76
     1
 98
        1
 10
0.0
 20
0.0
  0
LINE
  5
289
330
EC
100
AcDbEntity
  8
DEFAULT
  6
Continuous
 62
   136
370
     0
100
AcDbLine
 10
123.00333947019
 20
148.5961060575157
 30
0.0
 11
112.6626295324536
 21
148.5961060575157
 31
0.0
  0
LINE
  5
28A
330
EC
100
AcDbEntity
  8
DEFAULT
  6
Continuous
 62
   136
370
     0
100
AcDbLine
 10
123.00333947019
 20
100.5961060575157
 30
0.0
 11
112.6626295324536
 21
100.5961060575157
 31
0.0
  0
LINE
  5
28B
330
EC
100
AcDbEntity
  8
DEFAULT
  6
Continuous
 62
   136
370
     0
100
AcDbLine
 10
114.1626295454922
 20
148.5961060575157
 30
0.0
 11
114.1626295454922
 21
100.5961056402832
 31
0.0
  0
TEXT
  5
28C
330
EC
100
AcDbEntity
  8
DEFAULT
  6
Continuous
 62
   136
370
     0
100
AcDbText
 10
113.4126295454922
 20
122.7551967579903
 30
0.0
 40
3.0
  1
48
 50
90.0
  7
seiso_ttf
 11
110.4126295454922
 21
122.7551967579903
 31
0.0
100
AcDbText
 73
     3
  0
ENDBLK
  5
319
330
EC
100
AcDbEntity
  8
0
370
     0
100
AcDbBlockEnd
  0
BLOCK
  5
31A
330
EF
100
AcDbEntity
  8
0
370
     0
100
AcDbBlockBegin
  2
DMBLK103
 70
     0
 10
0.0
 20
0.0
 30
0.0
  3
DMBLK103
  1

  0
LINE
  5
43F
330
EF
100
AcDbEntity
  8
DEFAULT
  6
Continuous
 62
   136
370
    -2
100
AcDbLine
 10
123.00333947019
 20
148.5961060575157
 30
0.0
 11
112.6626295454922
 21
148.5961060575157
 31
0.0
  0
LINE
  5
440
330
EF
100
AcDbEntity
  8
DEFAULT
  6
Continuous
 62
   136
370
    -2
100
AcDbLine
 10
123.00333947019
 20
100.5961060575157
 30
0.0
 11
112.6626295454922
 21
100.5961060575157
 31
0.0
  0
LINE
  5
441
330
EF
100
AcDbEntity
  8
DEFAULT
  6
Continuous
 62
   136
370
    -2
100
AcDbLine
 10
114.1626295454922
 20
145.5961060575157
 30
0.0
 11
114.1626295454922
 21
103.5961060575157
 31
0.0
  0
INSERT
  5
442
330
EF
100
AcDbEntity
  8
DEFAULT
  6
Continuous
 62
   136
370
    -2
100
AcDbBlockReference
  2
_SE_FILLED
 10
114.1626295454922
 20
148.5961060575157
 30
0.0
 41
3.0
 42
3.0
 43
3.0
 50
90.0
  0
INSERT
  5
443
330
EF
100
AcDbEntity
  8
DEFAULT
  6
Continuous
 62
   136
370
    -2
100
AcDbBlockReference
  2
_SE_FILLED
 10
114.1626295454922
 20
100.5961060575157
 30
0.0
 41
3.0
 42
3.0
 43
3.0
 50
270.0
  0
MTEXT
  5
444
330
EF
100
AcDbEntity
  8
DEFAULT
  6
Continuous
 62
   136
370
     0
100
AcDbMText
 10
111.1626295454922
 20
124.5961058488994
 30
0.0
 40
3.0
 41
0.0
 71
     5
 72
     1
  1
\A1;\A1;48
  7
seiso_ttf
 11
0.0000000000000001
 21
1.0
 31
0.0
 73
     1
 44
1.0
1001
ACAD
1000
MTEXTBEGIN
1070
    73
1070
     1
1070
    44
1040
1.0
1070
    74
1070
     0
1000
MTEXTEND
  0
POINT
  5
445
330
EF
100
AcDbEntity
  8
DEFPOINTS
  6
Continuous
 62
     0
370
     0
100
AcDbPoint
 10
123.00333947019
 20
148.5961060575157
 30
0.0
  0
POINT
  5
446
330
EF
100
AcDbEntity
  8
DEFPOINTS
  6
Continuous
 62
     0
370
     0
100
AcDbPoint
 10
123.00333947019
 20
100.5961060575157
 30
0.0
  0
POINT
  5
447
330
EF
100
AcDbEntity
  8
DEFPOINTS
  6
Continuous
 62
     0
370
     0
100
AcDbPoint
 10
114.1626295454922
 20
100.5961060575157
 30
0.0
  0
ENDBLK
  5
290
330
EF
100
AcDbEntity
  8
DEFAULT
 62
     0
 48
0.0
370
     0
100
AcDbBlockEnd
  0
BLOCK
  5
291
330
F1
100
AcDbEntity
  8
DEFAULT
 62
     1
 48
0.0
370
     0
100
AcDbBlockBegin
  2
SE23
 70
     0
 10
0.0
 20
0.0
 30
0.0
  3
SE23
  1

  0
HATCH
  5
292
330
F1
100
AcDbEntity
  8
DEFAULT
  6
Continuous
 62
   136
100
AcDbHatch
 10
0.0
 20
0.0
 30
0.0
210
0.0
220
0.0
230
1.0
  2
SOLID
 70
     1
 71
     0
 91
        1
 92
        1
 93
        3
 72
     1
 10
110.7716738843791
 20
176.8921532056235
 11
111.2716738887253
 21
173.8921531795465
 72
     1
 10
111.2716738887253
 20
173.8921531795465
 11
111.7716738930714
 21
176.8921532056235
 72
     1
 10
111.7716738930714
 20
176.8921532056235
 11
110.7716738843791
 21
176.8921532056235
 97
        0
 75
     0
 76
     1
 98
        1
 10
0.0
 20
0.0
  0
HATCH
  5
293
330
F1
100
AcDbEntity
  8
DEFAULT
  6
Continuous
 62
   136
100
AcDbHatch
 10
0.0
 20
0.0
 30
0.0
210
0.0
220
0.0
230
1.0
  2
SOLID
 70
     1
 71
     0
 91
        1
 92
        1
 93
        3
 72
     1
 10
110.7716738843791
 20
199.3921531534694
 11
111.2716738887253
 21
202.3921531795465
 72
     1
 10
111.2716738887253
 20
202.3921531795465
 11
111.7716738930714
 21
199.3921531534694
 72
     1
 10
111.7716738930714
 20
199.3921531534694
 11
110.7716738843791
 21
199.3921531534694
 97
        0
 75
     0
 76
     1
 98
        1
 10
0.0
 20
0.0
  0
LINE
  5
294
330
F1
100
AcDbEntity
  8
DEFAULT
  6
Continuous
 62
   136
370
     0
100
AcDbLine
 10
123.00333947019
 20
173.8921531795465
 30
0.0
 11
109.7716738756868
 21
173.8921531795465
 31
0.0
  0
LINE
  5
295
330
F1
100
AcDbEntity
  8
DEFAULT
  6
Continuous
 62
   136
370
     0
100
AcDbLine
 10
130.00333947019
 20
202.3921531795465
 30
0.0
 11
109.7716738756867
 21
202.3921531795465
 31
0.0
  0
LINE
  5
296
330
F1
100
AcDbEntity
  8
DEFAULT
  6
Continuous
 62
   136
370
     0
100
AcDbLine
 10
111.2716738887253
 20
173.8921531795465
 30
0.0
 11
111.2716738887253
 21
202.3921531944476
 31
0.0
  0
TEXT
  5
297
330
F1
100
AcDbEntity
  8
DEFAULT
  6
Continuous
 62
   136
370
     0
100
AcDbText
 10
110.5216738887253
 20
186.267153186997
 30
0.0
 40
3.0
  1
28
 50
90.0
  7
seiso_ttf
 11
107.5216738887253
 21
186.267153186997
 31
0.0
100
AcDbText
 73
     3
  0
ENDBLK
  5
31B
330
F1
100
AcDbEntity
  8
0
370
     0
100
AcDbBlockEnd
  0
BLOCK
  5
31C
330
F4
100
AcDbEntity
  8
0
370
     0
100
AcDbBlockBegin
  2
DMBLK104
 70
     0
 10
0.0
 20
0.0
 30
0.0
  3
DMBLK104
  1

  0
LINE
  5
448
330
F4
100
AcDbEntity
  8
DEFAULT
  6
Continuous
 62
   136
370
    -2
100
AcDbLine
 10
123.00333947019
 20
173.8921531795465
 30
0.0
 11
109.7716738887253
 21
173.8921531795465
 31
0.0
  0
LINE
  5
449
330
F4
100
AcDbEntity
  8
DEFAULT
  6
Continuous
 62
   136
370
    -2
100
AcDbLine
 10
130.00333947019
 20
202.3921531795465
 30
0.0
 11
109.7716738887253
 21
202.3921531795465
 31
0.0
  0
LINE
  5
44A
330
F4
100
AcDbEntity
  8
DEFAULT
  6
Continuous
 62
   136
370
    -2
100
AcDbLine
 10
111.2716738887253
 20
176.8921531795465
 30
0.0
 11
111.2716738887253
 21
199.3921531795464
 31
0.0
  0
INSERT
  5
44B
330
F4
100
AcDbEntity
  8
DEFAULT
  6
Continuous
 62
   136
370
    -2
100
AcDbBlockReference
  2
_SE_FILLED
 10
111.2716738887253
 20
173.8921531795465
 30
0.0
 41
3.0
 42
3.0
 43
3.0
 50
270.0
  0
INSERT
  5
44C
330
F4
100
AcDbEntity
  8
DEFAULT
  6
Continuous
 62
   136
370
    -2
100
AcDbBlockReference
  2
_SE_FILLED
 10
111.2716738887253
 20
202.3921531795465
 30
0.0
 41
3.0
 42
3.0
 43
3.0
 50
90.0
  0
MTEXT
  5
44D
330
F4
100
AcDbEntity
  8
DEFAULT
  6
Continuous
 62
   136
370
     0
100
AcDbMText
 10
108.2716738887253
 20
188.142153186997
 30
0.0
 40
3.0
 41
0.0
 71
     5
 72
     1
  1
\A1;\A1;29
  7
seiso_ttf
 11
0.0000000000000001
 21
1.0
 31
0.0
 73
     1
 44
1.0
1001
ACAD
1000
MTEXTBEGIN
1070
    73
1070
     1
1070
    44
1040
1.0
1070
    74
1070
     0
1000
MTEXTEND
  0
POINT
  5
44E
330
F4
100
AcDbEntity
  8
DEFPOINTS
  6
Continuous
 62
     0
370
     0
100
AcDbPoint
 10
123.00333947019
 20
173.8921531795465
 30
0.0
  0
POINT
  5
44F
330
F4
100
AcDbEntity
  8
DEFPOINTS
  6
Continuous
 62
     0
370
     0
100
AcDbPoint
 10
130.00333947019
 20
202.3921531795465
 30
0.0
  0
POINT
  5
450
330
F4
100
AcDbEntity
  8
DEFPOINTS
  6
Continuous
 62
     0
370
     0
100
AcDbPoint
 10
111.2716738887253
 20
202.3921531795465
 30
0.0
  0
ENDBLK
  5
29B
330
F4
100
AcDbEntity
  8
DEFAULT
 62
     0
 48
0.0
370
     0
100
AcDbBlockEnd
  0
BLOCK
  5
29C
330
F6
100
AcDbEntity
  8
DEFAULT
 62
     1
 48
0.0
370
     0
100
AcDbBlockBegin
  2
SE24
 70
     0
 10
0.0
 20
0.0
 30
0.0
  3
SE24
  1

  0
HATCH
  5
29D
330
F6
100
AcDbEntity
  8
DEFAULT
  6
Continuous
 62
   136
100
AcDbHatch
 10
0.0
 20
0.0
 30
0.0
210
0.0
220
0.0
230
1.0
  2
SOLID
 70
     1
 71
     0
 91
        1
 92
        1
 93
        3
 72
     1
 10
126.003339496267
 20
215.2838371200117
 11
123.00333947019
 21
214.7838371156655
 72
     1
 10
123.00333947019
 20
214.7838371156655
 11
126.003339496267
 21
214.2838371113194
 72
     1
 10
126.003339496267
 20
214.2838371113194
 11
126.003339496267
 21
215.2838371200117
 97
        0
 75
     0
 76
     1
 98
        1
 10
0.0
 20
0.0
  0
HATCH
  5
29E
330
F6
100
AcDbEntity
  8
DEFAULT
  6
Continuous
 62
   136
100
AcDbHatch
 10
0.0
 20
0.0
 30
0.0
210
0.0
220
0.0
230
1.0
  2
SOLID
 70
     1
 71
     0
 91
        1
 92
        1
 93
        3
 72
     1
 10
150.003339444113
 20
215.2838371200117
 11
153.00333947019
 21
214.7838371156655
 72
     1
 10
153.00333947019
 20
214.7838371156655
 11
150.003339444113
 21
214.2838371113194
 72
     1
 10
150.003339444113
 20
214.2838371113194
 11
150.003339444113
 21
215.2838371200117
 97
        0
 75
     0
 76
     1
 98
        1
 10
0.0
 20
0.0
  0
LINE
  5
29F
330
F6
100
AcDbEntity
  8
DEFAULT
  6
Continuous
 62
   136
370
     0
100
AcDbLine
 10
123.00333947019
 20
177.8921531795464
 30
0.0
 11
123.00333947019
 21
216.283837128704
 31
0.0
  0
LINE
  5
2A0
330
F6
100
AcDbEntity
  8
DEFAULT
  6
Continuous
 62
   136
370
     0
100
AcDbLine
 10
153.00333947019
 20
202.3921531795465
 30
0.0
 11
153.00333947019
 21
216.283837128704
 31
0.0
  0
LINE
  5
2A1
330
F6
100
AcDbEntity
  8
DEFAULT
  6
Continuous
 62
   136
370
     0
100
AcDbLine
 10
123.00333947019
 20
214.7838371156655
 30
0.0
 11
153.0033387996378
 21
214.7838371156655
 31
0.0
  0
TEXT
  5
2A2
330
F6
100
AcDbEntity
  8
DEFAULT
  6
Continuous
 62
   136
370
     0
100
AcDbText
 10
136.3328845894593
 20
215.5338371156656
 30
0.0
 40
3.0
  1
30
  7
seiso_ttf
 11
136.3328845894593
 21
218.5338371156655
 31
0.0
100
AcDbText
 73
     3
  0
ENDBLK
  5
31D
330
F6
100
AcDbEntity
  8
0
370
     0
100
AcDbBlockEnd
  0
BLOCK
  5
31E
330
F9
100
AcDbEntity
  8
0
370
     0
100
AcDbBlockBegin
  2
DMBLK105
 70
     0
 10
0.0
 20
0.0
 30
0.0
  3
DMBLK105
  1

  0
LINE
  5
451
330
F9
100
AcDbEntity
  8
DEFAULT
  6
Continuous
 62
   136
370
    -2
100
AcDbLine
 10
123.00333947019
 20
177.8921531795464
 30
0.0
 11
123.00333947019
 21
216.2838371156655
 31
0.0
  0
LINE
  5
452
330
F9
100
AcDbEntity
  8
DEFAULT
  6
Continuous
 62
   136
370
    -2
100
AcDbLine
 10
153.00333947019
 20
202.3921531795465
 30
0.0
 11
153.00333947019
 21
216.2838371156655
 31
0.0
  0
LINE
  5
453
330
F9
100
AcDbEntity
  8
DEFAULT
  6
Continuous
 62
   136
370
    -2
100
AcDbLine
 10
126.00333947019
 20
214.7838371156655
 30
0.0
 11
150.00333947019
 21
214.7838371156655
 31
0.0
  0
INSERT
  5
454
330
F9
100
AcDbEntity
  8
DEFAULT
  6
Continuous
 62
   136
370
    -2
100
AcDbBlockReference
  2
_SE_FILLED
 10
123.00333947019
 20
214.7838371156655
 30
0.0
 41
3.0
 42
3.0
 43
3.0
 50
180.0
  0
INSERT
  5
455
330
F9
100
AcDbEntity
  8
DEFAULT
  6
Continuous
 62
   136
370
    -2
100
AcDbBlockReference
  2
_SE_FILLED
 10
153.00333947019
 20
214.7838371156655
 30
0.0
 41
3.0
 42
3.0
 43
3.0
  0
MTEXT
  5
456
330
F9
100
AcDbEntity
  8
DEFAULT
  6
Continuous
 62
   136
370
     0
100
AcDbMText
 10
138.0033391349139
 20
217.7838371156656
 30
0.0
 40
3.0
 41
0.0
 71
     5
 72
     1
  1
\A1;\A1;30
  7
seiso_ttf
 73
     1
 44
1.0
1001
ACAD
1000
MTEXTBEGIN
1070
    73
1070
     1
1070
    44
1040
1.0
1070
    74
1070
     0
1000
MTEXTEND
  0
POINT
  5
457
330
F9
100
AcDbEntity
  8
DEFPOINTS
  6
Continuous
 62
     0
370
     0
100
AcDbPoint
 10
123.00333947019
 20
177.8921531795464
 30
0.0
  0
POINT
  5
458
330
F9
100
AcDbEntity
  8
DEFPOINTS
  6
Continuous
 62
     0
370
     0
100
AcDbPoint
 10
153.00333947019
 20
202.3921531795465
 30
0.0
  0
POINT
  5
459
330
F9
100
AcDbEntity
  8
DEFPOINTS
  6
Continuous
 62
     0
370
     0
100
AcDbPoint
 10
153.00333947019
 20
214.7838371156655
 30
0.0
  0
ENDBLK
  5
2A6
330
F9
100
AcDbEntity
  8
DEFAULT
 62
     0
 48
0.0
370
     0
100
AcDbBlockEnd
  0
ENDSEC
  0
SECTION
  2
ENTITIES
  0
INSERT
  5
8A
330
A
100
AcDbEntity
  8
0
 62
     0
 48
0.0
370
     0
100
AcDbBlockReference
  2
SE0
 10
0.0
 20
0.0
 30
0.0
  0
INSERT
  5
92
330
A
100
AcDbEntity
  8
0
 62
     0
 48
0.0
370
     0
100
AcDbBlockReference
  2
SE2
 10
0.0
 20
0.0
 30
0.0
  0
INSERT
  5
9A
330
A
100
AcDbEntity
  8
0
 62
     0
 48
0.0
370
     0
100
AcDbBlockReference
  2
SE4
 10
0.0
 20
0.0
 30
0.0
  0
INSERT
  5
A2
330
A
100
AcDbEntity
  8
0
 62
     0
 48
0.0
370
     0
100
AcDbBlockReference
  2
SE6
 10
0.0
 20
0.0
 30
0.0
  0
ELLIPSE
  5
487
330
A
100
AcDbEntity
  8
DV3_0
  6
Continuous
 62
     7
370
     0
100
AcDbEllipse
 10
-57.79604712203074
 20
77.69590697360438
 30
0.0
 11
0.0000000000000025
 21
-1.89985985157361
 31
0.0
210
0.0
220
0.0
230
1.0
 40
0.5263546146162956
 41
6.123550147437574
 42
6.283185307179583
  0
LINE
  5
488
330
A
100
AcDbEntity
  8
0
  6
Continuous
 62
     7
370
     0
100
AcDbLine
 10
-58.79604712203073
 20
67.19590697360435
 30
0.0
 11
-58.79604712203074
 21
75.92192744738132
 31
0.0
  0
LINE
  5
489
330
A
100
AcDbEntity
  8
0
  6
HIDDEN2
 62
     7
370
     0
100
AcDbLine
 10
-46.79604712203068
 20
72.29604712203074
 30
0.0
 11
-35.79604712203078
 21
72.29604712203074
 31
0.0
  0
CIRCLE
  5
48A
330
A
100
AcDbEntity
  8
0
  6
Continuous
 62
     7
370
     0
100
AcDbCircle
 10
-57.29604712203073
 20
84.79604712203077
 30
0.0
 40
4.0
  0
LINE
  5
48B
330
A
100
AcDbEntity
  8
0
  6
HIDDEN2
 62
     7
370
     0
100
AcDbLine
 10
-78.79604712203067
 20
72.29604712203074
 30
0.0
 11
-67.79604712203078
 21
72.29604712203074
 31
0.0
  0
LINE
  5
48C
330
A
100
AcDbEntity
  8
0
  6
Continuous
 62
     7
370
     0
100
AcDbLine
 10
-64.29604712203072
 20
74.58665022989426
 30
0.0
 11
-64.29604712203072
 21
77.21842330297572
 31
0.0
  0
LINE
  5
48D
330
A
100
AcDbEntity
  8
0
  6
Continuous
 62
     7
370
     0
100
AcDbLine
 10
-51.29604712203073
 20
74.58665022989426
 30
0.0
 11
-51.29604712203074
 21
65.29604712203077
 31
0.0
  0
LINE
  5
48E
330
A
100
AcDbEntity
  8
0
  6
Continuous
 62
     7
370
     0
100
AcDbLine
 10
-51.29604712203073
 20
77.21842330297572
 30
0.0
 11
-51.29604712203073
 21
74.58665022989426
 31
0.0
  0
LINE
  5
48F
330
A
100
AcDbEntity
  8
0
  6
Continuous
 62
     7
370
     0
100
AcDbLine
 10
-50.29604712203073
 20
77.21842330297572
 30
0.0
 11
-50.29604712203073
 21
74.58665022989426
 31
0.0
  0
LINE
  5
490
330
A
100
AcDbEntity
  8
0
  6
Continuous
 62
     7
370
     0
100
AcDbLine
 10
-52.29604712203074
 20
67.19590697360435
 30
0.0
 11
-52.29604712203073
 21
75.11300484451054
 31
0.0
  0
ELLIPSE
  5
491
330
A
100
AcDbEntity
  8
0
  6
Continuous
 62
     7
370
     0
100
AcDbEllipse
 10
-51.29604712203073
 20
75.11300484451057
 30
0.0
 11
1.0
 21
-0.0000000000000035
 31
0.0
210
0.0
220
0.0
230
1.0
 40
0.5263546146162945
 41
3.141592653589793
 42
4.712388980384691
  0
LINE
  5
492
330
A
100
AcDbEntity
  8
0
  6
Continuous
 62
     7
370
     0
100
AcDbLine
 10
-52.29604712203073
 20
77.21842330297572
 30
0.0
 11
-52.29604712203073
 21
75.11300484451054
 31
0.0
  0
LINE
  5
493
330
A
100
AcDbEntity
  8
0
  6
Continuous
 62
     7
370
     0
100
AcDbLine
 10
-51.29604712203073
 20
78.0878431895314
 30
0.0
 11
-51.29604712203073
 21
77.21842330297572
 31
0.0
  0
LINE
  5
494
330
A
100
AcDbEntity
  8
0
  6
Continuous
 62
     7
370
     0
100
AcDbLine
 10
-50.29604712203073
 20
74.58665022989426
 30
0.0
 11
-51.29604712203073
 21
74.58665022989426
 31
0.0
  0
LINE
  5
495
330
A
100
AcDbEntity
  8
0
  6
Continuous
 62
     7
370
     0
100
AcDbLine
 10
-63.29604712203073
 20
74.58665022989426
 30
0.0
 11
-64.29604712203072
 21
74.58665022989426
 31
0.0
  0
LINE
  5
496
330
A
100
AcDbEntity
  8
0
  6
Continuous
 62
     7
370
     0
100
AcDbLine
 10
-64.29604712203072
 20
77.21842330297572
 30
0.0
 11
-63.29604712203073
 21
77.21842330297572
 31
0.0
  0
ELLIPSE
  5
497
330
A
100
AcDbEntity
  8
0
  6
Continuous
 62
     7
370
     0
100
AcDbEllipse
 10
-63.29604712203073
 20
75.11300484451057
 30
0.0
 11
1.0
 21
0.0000000000000035
 31
0.0
210
0.0
220
0.0
230
1.0
 40
0.5263546146162947
 41
4.712388980384687
 42
6.283185307179586
  0
LINE
  5
498
330
A
100
AcDbEntity
  8
0
  6
Continuous
 62
     7
370
     0
100
AcDbLine
 10
-62.29604712203073
 20
75.11300484451057
 30
0.0
 11
-62.29604712203073
 21
77.21842330297575
 31
0.0
  0
LINE
  5
499
330
A
100
AcDbEntity
  8
0
  6
Continuous
 62
     7
370
     0
100
AcDbLine
 10
-50.29604712203073
 20
77.21842330297572
 30
0.0
 11
-49.29604712203072
 21
77.21842330297572
 31
0.0
  0
LINE
  5
49A
330
A
100
AcDbEntity
  8
0
  6
Continuous
 62
     7
370
     0
100
AcDbLine
 10
-49.29604712203074
 20
75.11300484451057
 30
0.0
 11
-49.29604712203074
 21
77.21842330297575
 31
0.0
  0
LINE
  5
49B
330
A
100
AcDbEntity
  8
0
  6
Continuous
 62
     7
370
     0
100
AcDbLine
 10
-65.29604712203073
 20
77.21842330297572
 30
0.0
 11
-64.29604712203072
 21
77.21842330297572
 31
0.0
  0
LINE
  5
49C
330
A
100
AcDbEntity
  8
0
  6
Continuous
 62
     7
370
     0
100
AcDbLine
 10
-63.29604712203073
 20
77.21842330297572
 30
0.0
 11
-62.29604712203073
 21
77.21842330297572
 31
0.0
  0
LINE
  5
49D
330
A
100
AcDbEntity
  8
0
  6
Continuous
 62
     7
370
     0
100
AcDbLine
 10
-63.29604712203073
 20
77.21842330297572
 30
0.0
 11
-63.29604712203073
 21
78.08784318953136
 31
0.0
  0
LINE
  5
49E
330
A
100
AcDbEntity
  8
0
  6
Continuous
 62
     7
370
     0
100
AcDbLine
 10
-65.29604712203073
 20
77.21842330297572
 30
0.0
 11
-65.29604712203073
 21
75.11300484451054
 31
0.0
  0
ELLIPSE
  5
49F
330
A
100
AcDbEntity
  8
0
  6
Continuous
 62
     7
370
     0
100
AcDbEllipse
 10
-64.29604712203072
 20
75.11300484451057
 30
0.0
 11
1.0
 21
0.0
 31
0.0
210
0.0
220
0.0
230
1.0
 40
0.5263546146162911
 41
3.141592653589793
 42
4.712388980384689
  0
ELLIPSE
  5
4A0
330
A
100
AcDbEntity
  8
0
  6
Continuous
 62
     7
370
     0
100
AcDbEllipse
 10
-63.29604712203073
 20
67.19590697360435
 30
0.0
 11
0.0
 21
1.89985985157361
 31
0.0
210
0.0
220
0.0
230
1.0
 40
0.5263546146162956
 41
3.141592653589793
 42
4.712388980384689
  0
LINE
  5
4A1
330
A
100
AcDbEntity
  8
0
  6
Continuous
 62
     7
370
     0
100
AcDbLine
 10
-62.29604712203073
 20
75.11300484451057
 30
0.0
 11
-62.29604712203073
 21
67.19590697360438
 31
0.0
  0
ELLIPSE
  5
4A2
330
A
100
AcDbEntity
  8
0
  6
Continuous
 62
     7
370
     0
100
AcDbEllipse
 10
-57.79604712203073
 20
67.19590697360435
 30
0.0
 11
0.0000000000000025
 21
-1.89985985157361
 31
0.0
210
0.0
220
0.0
230
1.0
 40
0.5263546146162956
 41
4.712388980384688
 42
6.283185307179586
  0
LINE
  5
4A3
330
A
100
AcDbEntity
  8
0
  6
Continuous
 62
     7
370
     0
100
AcDbLine
 10
-62.29604712203073
 20
77.31273234848287
 30
0.0
 11
-62.29604712203073
 21
77.21842330297572
 31
0.0
  0
LINE
  5
4A4
330
A
100
AcDbEntity
  8
0
  6
Continuous
 62
     7
370
     0
100
AcDbLine
 10
-63.29604712203073
 20
65.29604712203077
 30
0.0
 11
-63.29604712203073
 21
74.58665022989426
 31
0.0
  0
LINE
  5
4A5
330
A
100
AcDbEntity
  8
0
  6
Continuous
 62
     7
370
     0
100
AcDbLine
 10
-57.79604712203074
 20
75.79604712203074
 30
0.0
 11
-57.79604712203073
 21
65.29604712203074
 31
0.0
  0
ELLIPSE
  5
4A6
330
A
100
AcDbEntity
  8
0
  6
Continuous
 62
     7
370
     0
100
AcDbEllipse
 10
-56.79604712203074
 20
67.19590697360435
 30
0.0
 11
0.0000000000000025
 21
1.89985985157361
 31
0.0
210
0.0
220
0.0
230
1.0
 40
0.5263546146162956
 41
3.141592653589793
 42
4.71238898038469
  0
LINE
  5
4A7
330
A
100
AcDbEntity
  8
0
  6
Continuous
 62
     7
370
     0
100
AcDbLine
 10
-56.79604712203074
 20
65.29604712203077
 30
0.0
 11
-56.79604712203072
 21
75.79604712203077
 31
0.0
  0
ELLIPSE
  5
4A8
330
A
100
AcDbEntity
  8
0
  6
Continuous
 62
     7
370
     0
100
AcDbEllipse
 10
-56.79604712203072
 20
77.69590697360438
 30
0.0
 11
0.0000000000000025
 21
1.89985985157361
 31
0.0
210
0.0
220
0.0
230
1.0
 40
0.5263546146162956
 41
3.141592653589795
 42
3.301227813339803
  0
LINE
  5
4A9
330
A
100
AcDbEntity
  8
0
  6
Continuous
 62
     7
370
     0
100
AcDbLine
 10
-55.79604712203073
 20
75.92192744738132
 30
0.0
 11
-55.79604712203074
 21
67.19590697360435
 31
0.0
  0
LINE
  5
4AA
330
A
100
AcDbEntity
  8
0
  6
Continuous
 62
     7
370
     0
100
AcDbLine
 10
-50.29604712203073
 20
77.21842330297572
 30
0.0
 11
-50.29604712203073
 21
79.13919287253837
 31
0.0
  0
LINE
  5
4AB
330
A
100
AcDbEntity
  8
0
  6
Continuous
 62
     7
370
     0
100
AcDbLine
 10
-49.29604712203074
 20
80.67294149641311
 30
0.0
 11
-49.29604712203074
 21
77.21842330297575
 31
0.0
  0
LINE
  5
4AC
330
A
100
AcDbEntity
  8
0
  6
Continuous
 62
     7
370
     0
100
AcDbLine
 10
-50.29604712203073
 20
65.29604712203077
 30
0.0
 11
-50.29604712203071
 21
74.58665022989426
 31
0.0
  0
ELLIPSE
  5
4AD
330
A
100
AcDbEntity
  8
0
  6
Continuous
 62
     7
370
     0
100
AcDbEllipse
 10
-50.29604712203073
 20
67.19590697360435
 30
0.0
 11
0.0000000000000009
 21
-1.89985985157361
 31
0.0
210
0.0
220
0.0
230
1.0
 40
0.5263546146162956
 41
0.0
 42
1.570796326794896
  0
LINE
  5
4AE
330
A
100
AcDbEntity
  8
0
  6
Continuous
 62
     7
370
     0
100
AcDbLine
 10
-49.29604712203074
 20
75.11300484451057
 30
0.0
 11
-49.29604712203074
 21
67.19590697360438
 31
0.0
  0
ELLIPSE
  5
4AF
330
A
100
AcDbEntity
  8
0
  6
Continuous
 62
     7
370
     0
100
AcDbEllipse
 10
-64.29604712203072
 20
67.19590697360435
 30
0.0
 11
0.0
 21
1.89985985157361
 31
0.0
210
0.0
220
0.0
230
1.0
 40
0.5263546146162956
 41
1.570796326794896
 42
3.141592653589793
  0
LINE
  5
4B0
330
A
100
AcDbEntity
  8
0
  6
Continuous
 62
     7
370
     0
100
AcDbLine
 10
-64.29604712203072
 20
79.13919287253837
 30
0.0
 11
-64.29604712203072
 21
77.21842330297575
 31
0.0
  0
LINE
  5
4B1
330
A
100
AcDbEntity
  8
0
  6
Continuous
 62
     7
370
     0
100
AcDbLine
 10
-65.29604712203073
 20
77.21842330297572
 30
0.0
 11
-65.29604712203073
 21
80.67294149641309
 31
0.0
  0
LINE
  5
4B2
330
A
100
AcDbEntity
  8
0
  6
Continuous
 62
     7
370
     0
100
AcDbLine
 10
-64.29604712203072
 20
74.58665022989426
 30
0.0
 11
-64.29604712203072
 21
65.29604712203077
 31
0.0
  0
LINE
  5
4B3
330
A
100
AcDbEntity
  8
0
  6
Continuous
 62
     7
370
     0
100
AcDbLine
 10
-65.29604712203073
 20
67.19590697360435
 30
0.0
 11
-65.29604712203073
 21
75.11300484451054
 31
0.0
  0
CIRCLE
  5
4B4
330
A
100
AcDbEntity
  8
0
  6
Continuous
 62
     7
370
     0
100
AcDbCircle
 10
-57.29604712203073
 20
84.79604712203077
 30
0.0
 40
9.000000000000001
  0
LINE
  5
4B5
330
A
100
AcDbEntity
  8
0
  6
HIDDEN2
 62
     7
370
     0
100
AcDbLine
 10
-48.29604712203073
 20
73.29604712203074
 30
0.0
 11
-48.29604712203073
 21
88.4901270055043
 31
0.0
  0
LINE
  5
4B6
330
A
100
AcDbEntity
  8
0
  6
HIDDEN2
 62
     7
370
     0
100
AcDbLine
 10
-33.29604712203073
 20
73.29604712203074
 30
0.0
 11
-48.29604712203073
 21
73.29604712203074
 31
0.0
  0
LINE
  5
4B7
330
A
100
AcDbEntity
  8
0
  6
HIDDEN2
 62
     7
370
     0
100
AcDbLine
 10
-66.29604712203073
 20
73.29604712203074
 30
0.0
 11
-66.29604712203073
 21
88.49012700550428
 31
0.0
  0
LINE
  5
4B8
330
A
100
AcDbEntity
  8
0
  6
HIDDEN2
 62
     7
370
     0
100
AcDbLine
 10
-81.29604712203073
 20
73.29604712203074
 30
0.0
 11
-66.29604712203073
 21
73.29604712203074
 31
0.0
  0
LINE
  5
4B9
330
A
100
AcDbEntity
  8
0
  6
HIDDEN2
 62
     7
370
     0
100
AcDbLine
 10
-48.29604712203073
 20
73.29604712203074
 30
0.0
 11
-66.29604712203073
 21
73.29604712203074
 31
0.0
  0
LINE
  5
4BA
330
A
100
AcDbEntity
  8
0
  6
Continuous
 62
     7
370
     0
100
AcDbLine
 10
-64.29604712203072
 20
65.29604712203077
 30
0.0
 11
-81.29604712203073
 21
65.29604712203077
 31
0.0
  0
LINE
  5
4BB
330
A
100
AcDbEntity
  8
0
  6
Continuous
 62
     7
370
     0
100
AcDbLine
 10
-81.29604712203073
 20
65.29604712203077
 30
0.0
 11
-81.29604712203073
 21
73.29604712203077
 31
0.0
  0
LINE
  5
4BC
330
A
100
AcDbEntity
  8
0
  6
Continuous
 62
     7
370
     0
100
AcDbLine
 10
-81.29604712203073
 20
73.29604712203074
 30
0.0
 11
-63.70078177191174
 21
91.11897160873891
 31
0.0
  0
LINE
  5
4BD
330
A
100
AcDbEntity
  8
0
  6
Continuous
 62
     7
370
     0
100
AcDbLine
 10
-56.79604712203074
 20
65.29604712203077
 30
0.0
 11
-57.79604712203073
 21
65.29604712203077
 31
0.0
  0
LINE
  5
4BE
330
A
100
AcDbEntity
  8
0
  6
Continuous
 62
     7
370
     0
100
AcDbLine
 10
-50.89131247214975
 20
91.11897160873891
 30
0.0
 11
-33.29604712203073
 21
73.29604712203074
 31
0.0
  0
LINE
  5
4BF
330
A
100
AcDbEntity
  8
0
  6
Continuous
 62
     7
370
     0
100
AcDbLine
 10
-33.29604712203073
 20
73.29604712203074
 30
0.0
 11
-33.29604712203073
 21
65.29604712203074
 31
0.0
  0
LINE
  5
4C0
330
A
100
AcDbEntity
  8
0
  6
Continuous
 62
     7
370
     0
100
AcDbLine
 10
-33.29604712203073
 20
65.29604712203077
 30
0.0
 11
-50.29604712203073
 21
65.29604712203077
 31
0.0
  0
LINE
  5
4C1
330
A
100
AcDbEntity
  8
0
  6
Continuous
 62
     7
370
     0
100
AcDbLine
 10
-56.79604712203072
 20
75.79604712203074
 30
0.0
 11
-57.29604712203074
 21
75.79604712203074
 31
0.0
  0
LINE
  5
4C2
330
A
100
AcDbEntity
  8
0
  6
Continuous
 62
     7
370
     0
100
AcDbLine
 10
-57.79604712203074
 20
75.79604712203074
 30
0.0
 11
-57.29604712203074
 21
75.79604712203074
 31
0.0
  0
LINE
  5
4C3
330
A
100
AcDbEntity
  8
0
  6
Continuous
 62
     7
370
     0
100
AcDbLine
 10
-63.29604712203073
 20
65.29604712203077
 30
0.0
 11
-64.29604712203072
 21
65.29604712203077
 31
0.0
  0
LINE
  5
4C4
330
A
100
AcDbEntity
  8
0
  6
Continuous
 62
     7
370
     0
100
AcDbLine
 10
-50.29604712203073
 20
65.29604712203077
 30
0.0
 11
-51.29604712203073
 21
65.29604712203077
 31
0.0
  0
LINE
  5
4C5
330
A
100
AcDbEntity
  8
0
  6
Continuous
 62
     7
370
     0
100
AcDbLine
 10
-52.29604712203073
 20
77.21842330297572
 30
0.0
 11
-52.29604712203073
 21
77.31273234848287
 31
0.0
  0
LINE
  5
4C6
330
A
100
AcDbEntity
  8
0
  6
Continuous
 62
     7
370
     0
100
AcDbLine
 10
-57.79604712203073
 20
65.29604712203077
 30
0.0
 11
-63.29604712203073
 21
65.29604712203077
 31
0.0
  0
LINE
  5
4C7
330
A
100
AcDbEntity
  8
0
  6
Continuous
 62
     7
370
     0
100
AcDbLine
 10
-56.79604712203074
 20
65.29604712203077
 30
0.0
 11
-51.29604712203074
 21
65.29604712203077
 31
0.0
  0
LINE
  5
4C8
330
A
100
AcDbEntity
  8
0
  6
Continuous
 62
     7
370
     0
100
AcDbLine
 10
-63.29604712203073
 20
74.58665022989426
 30
0.0
 11
-63.29604712203073
 21
77.21842330297572
 31
0.0
  0
ELLIPSE
  5
4C9
330
A
100
AcDbEntity
  8
0
  6
Continuous
 62
     7
370
     0
100
AcDbEllipse
 10
-51.29604712203074
 20
67.19590697360435
 30
0.0
 11
-0.0000000000000022
 21
-1.89985985157361
 31
0.0
210
0.0
220
0.0
230
1.0
 40
0.5263546146162956
 41
4.712388980384689
 42
6.283185307179586
  0
LINE
  5
4CA
330
A
100
AcDbEntity
  8
0
  6
HIDDEN2
 62
     7
370
     0
100
AcDbLine
 10
-78.79604712203075
 20
73.29604712203074
 30
0.0
 11
-78.79604712203075
 21
72.29604712203074
 31
0.0
  0
LINE
  5
4CB
330
A
100
AcDbEntity
  8
0
  6
HIDDEN2
 62
     7
370
     0
100
AcDbLine
 10
-70.54604712203074
 20
65.29604712203077
 30
0.0
 11
-70.54604712203074
 21
72.29604712203077
 31
0.0
  0
LINE
  5
4CC
330
A
100
AcDbEntity
  8
0
  6
HIDDEN2
 62
     7
370
     0
100
AcDbLine
 10
-46.79604712203072
 20
73.29604712203074
 30
0.0
 11
-46.79604712203072
 21
72.29604712203074
 31
0.0
  0
LINE
  5
4CD
330
A
100
AcDbEntity
  8
0
  6
HIDDEN2
 62
     7
370
     0
100
AcDbLine
 10
-38.54604712203074
 20
65.29604712203077
 30
0.0
 11
-38.54604712203074
 21
72.29604712203077
 31
0.0
  0
LINE
  5
4CE
330
A
100
AcDbEntity
  8
0
  6
Continuous
 62
     7
370
     0
100
AcDbLine
 10
-52.29604712203073
 20
77.21842330297572
 30
0.0
 11
-51.29604712203073
 21
77.21842330297572
 31
0.0
  0
LINE
  5
4CF
330
A
100
AcDbEntity
  8
0
  6
Continuous
 62
     7
370
     0
100
AcDbLine
 10
-51.29604712203073
 20
77.21842330297572
 30
0.0
 11
-50.29604712203074
 21
77.21842330297572
 31
0.0
  0
ELLIPSE
  5
4D0
330
A
100
AcDbEntity
  8
0
  6
Continuous
 62
     7
370
     0
100
AcDbEllipse
 10
-50.29604712203073
 20
75.11300484451057
 30
0.0
 11
0.999999999999987
 21
0.0000000000000035
 31
0.0
210
0.0
220
0.0
230
1.0
 40
0.5263546146162988
 41
4.712388980384687
 42
6.283185307179586
  0
LINE
  5
4D1
330
A
100
AcDbEntity
  8
0
  6
HIDDEN2
 62
     7
370
     0
100
AcDbLine
 10
-67.79604712203073
 20
72.29604712203074
 30
0.0
 11
-67.79604712203073
 21
73.29604712203074
 31
0.0
  0
LINE
  5
4D2
330
A
100
AcDbEntity
  8
0
  6
HIDDEN2
 62
     7
370
     0
100
AcDbLine
 10
-76.04604712203074
 20
72.29604712203077
 30
0.0
 11
-76.04604712203074
 21
65.29604712203077
 31
0.0
  0
LINE
  5
4D3
330
A
100
AcDbEntity
  8
0
  6
HIDDEN2
 62
     7
370
     0
100
AcDbLine
 10
-35.79604712203074
 20
72.29604712203074
 30
0.0
 11
-35.79604712203074
 21
73.29604712203074
 31
0.0
  0
LINE
  5
4D4
330
A
100
AcDbEntity
  8
0
  6
HIDDEN2
 62
     7
370
     0
100
AcDbLine
 10
-44.04604712203074
 20
72.29604712203077
 30
0.0
 11
-44.04604712203074
 21
65.29604712203077
 31
0.0
  0
LINE
  5
521
330
A
100
AcDbEntity
  8
DV1_0
  6
Continuous
 62
     7
370
     0
100
AcDbLine
 10
14.50000000000003
 20
65.29604712203077
 30
0.0
 11
14.50000000000003
 21
73.29604712203077
 31
0.0
  0
ARC
  5
522
330
A
100
AcDbEntity
  8
0
  6
Continuous
 62
     7
370
     0
100
AcDbCircle
 10
16.00000000000003
 20
77.21842330297572
 30
0.0
 40
5.0
100
AcDbArc
 50
328.2405199151872
 51
0.0
  0
LINE
  5
523
330
A
100
AcDbEntity
  8
0
  6
Continuous
 62
     7
370
     0
100
AcDbLine
 10
20.25132573343933
 20
74.58665022989426
 30
0.0
 11
14.50000000000003
 21
65.29604712203077
 31
0.0
  0
LINE
  5
524
330
A
100
AcDbEntity
  8
0
  6
Continuous
 62
     7
370
     0
100
AcDbLine
 10
14.50000000000003
 20
91.11897160873891
 30
0.0
 11
-0.9999999999999715
 21
91.11897160873887
 31
0.0
  0
SPLINE
  5
525
330
A
100
AcDbEntity
  8
0
  6
Continuous
 62
     7
370
     0
100
AcDbSpline
210
0.0
220
0.0
230
1.0
 70
     8
 71
     3
 72
    23
 73
    19
 74
     0
 42
0.0000000001
 43
0.0000000001
 40
0.0
 40
0.0
 40
0.0
 40
0.0
 40
0.1250000000000004
 40
0.1250000000000004
 40
0.1250000000000004
 40
0.2500000000000009
 40
0.2500000000000009
 40
0.2500000000000009
 40
0.3750000000000013
 40
0.3750000000000013
 40
0.3750000000000013
 40
0.5000000000000018
 40
0.5000000000000018
 40
0.5000000000000018
 40
0.7500000000000009
 40
0.7500000000000009
 40
0.7500000000000009
 40
1.0
 40
1.0
 40
1.0
 40
1.0
 10
20.00000000000003
 20
80.67294149641311
 30
0.0
 10
20.0956491016407
 20
80.67294149641311
 30
0.0
 10
20.18788574821298
 20
80.64514574786155
 30
0.0
 10
20.26860600131536
 20
80.60240343886871
 30
0.0
 10
20.34932625441777
 20
80.55966112987587
 30
0.0
 10
20.42029414236109
 20
80.50248289010664
 30
0.0
 10
20.48221911454806
 20
80.44084031859519
 30
0.0
 10
20.54414408673506
 20
80.37919774708377
 30
0.0
 10
20.59869992045634
 20
80.31133452994426
 30
0.0
 10
20.64678495715626
 20
80.24182744021059
 30
0.0
 10
20.6948699938562
 20
80.17232035047694
 30
0.0
 10
20.736730675405
 20
80.10088641343989
 30
0.0
 10
20.77386900530962
 20
80.02823487929031
 30
0.0
 10
20.84814566511884
 20
79.8829318109912
 30
0.0
 10
20.90396699286793
 20
79.73164517511874
 30
0.0
 10
20.94176042843992
 20
79.58270567244095
 30
0.0
 10
20.97955386401196
 20
79.43376616976313
 30
0.0
 10
21.00000000000003
 20
79.28594547741822
 30
0.0
 10
21.00000000000003
 20
79.13919287253837
 30
0.0
  0
LINE
  5
526
330
A
100
AcDbEntity
  8
0
  6
HIDDEN2
 62
     7
370
     0
100
AcDbLine
 10
2.75
 20
65.29604712203077
 30
0.0
 11
2.75
 21
72.29604712203077
 31
0.0
  0
LINE
  5
527
330
A
100
AcDbEntity
  8
0
  6
Continuous
 62
     7
370
     0
100
AcDbLine
 10
21.00000000000003
 20
75.82020318769661
 30
0.0
 11
21.00000000000003
 21
75.79604712203074
 31
0.0
  0
LINE
  5
528
330
A
100
AcDbEntity
  8
0
  6
Continuous
 62
     7
370
     0
100
AcDbLine
 10
-7.999999999999985
 20
73.29604712203074
 30
0.0
 11
-7.999999999999985
 21
65.29604712203074
 31
0.0
  0
LINE
  5
529
330
A
100
AcDbEntity
  8
0
  6
HIDDEN2
 62
     7
370
     0
100
AcDbLine
 10
14.50000000000003
 20
77.31273234848287
 30
0.0
 11
20.00000000000003
 21
77.31273234848287
 31
0.0
  0
ARC
  5
52A
330
A
100
AcDbEntity
  8
0
  6
Continuous
 62
     7
370
     0
100
AcDbCircle
 10
20.03655156719069
 20
71.3977917708798
 30
0.0
 40
4.526141361281413
100
AcDbArc
 50
77.70981042387276
 51
80.16810622668623
  0
ARC
  5
52B
330
A
100
AcDbEntity
  8
0
  6
HIDDEN2
 62
     7
370
     0
100
AcDbCircle
 10
20.03655156719069
 20
71.3977917708798
 30
0.0
 40
4.526141361281413
100
AcDbArc
 50
80.16810622668623
 51
91.70577188361509
  0
LINE
  5
52C
330
A
100
AcDbEntity
  8
0
  6
Continuous
 62
     7
370
     0
100
AcDbLine
 10
14.50000000000003
 20
65.29604712203077
 30
0.0
 11
-7.999999999999971
 21
65.29604712203077
 31
0.0
  0
LINE
  5
52D
330
A
100
AcDbEntity
  8
0
  6
HIDDEN2
 62
     7
370
     0
100
AcDbLine
 10
-5.5
 20
73.29604712203074
 30
0.0
 11
-5.5
 21
72.29604712203074
 31
0.0
  0
LINE
  5
52E
330
A
100
AcDbEntity
  8
0
  6
Continuous
 62
     7
370
     0
100
AcDbLine
 10
20.25132573343933
 20
74.58665022989426
 30
0.0
 11
19.40106058675147
 21
75.11300484451054
 31
0.0
  0
ARC
  5
52F
330
A
100
AcDbEntity
  8
0
  6
Continuous
 62
     7
370
     0
100
AcDbCircle
 10
16.00000000000003
 20
77.21842330297572
 30
0.0
 40
4.0
100
AcDbArc
 50
328.2405199151872
 51
0.0
  0
LINE
  5
530
330
A
100
AcDbEntity
  8
0
  6
Continuous
 62
     7
370
     0
100
AcDbLine
 10
22.0
 20
93.79604712203073
 30
0.0
 11
-1.0
 21
93.79604712203073
 31
0.0
  0
LINE
  5
531
330
A
100
AcDbEntity
  8
0
  6
Continuous
 62
     7
370
     0
100
AcDbLine
 10
6.0
 20
73.29604712203074
 30
0.0
 11
-8.0
 21
73.29604712203074
 31
0.0
  0
LINE
  5
532
330
A
100
AcDbEntity
  8
0
  6
Continuous
 62
     7
370
     0
100
AcDbLine
 10
14.50000000000003
 20
80.67294149641311
 30
0.0
 11
20.00000000000003
 21
80.67294149641311
 31
0.0
  0
LINE
  5
533
330
A
100
AcDbEntity
  8
0
  6
Continuous
 62
     7
370
     0
100
AcDbLine
 10
-1.0
 20
73.29604712203074
 30
0.0
 11
-1.0
 21
88.49012700550428
 31
0.0
  0
LINE
  5
534
330
A
100
AcDbEntity
  8
0
  6
Continuous
 62
     7
370
     0
100
AcDbLine
 10
14.50000000000003
 20
73.29604712203074
 30
0.0
 11
14.50000000000003
 21
91.11897160873891
 31
0.0
  0
SPLINE
  5
535
330
A
100
AcDbEntity
  8
0
  6
HIDDEN2
 62
     7
370
     0
100
AcDbSpline
210
0.0
220
0.0
230
1.0
 70
     8
 71
     3
 72
    20
 73
    16
 74
     0
 42
0.0000000001
 43
0.0000000001
 40
0.0
 40
0.0
 40
0.0
 40
0.0
 40
0.0005059061853608
 40
0.0005059061853608
 40
0.0005059061853608
 40
0.0009181838725528
 40
0.0009181838725528
 40
0.0009181838725528
 40
0.0012588126851699
 40
0.0012588126851699
 40
0.0012588126851699
 40
0.0016025003711138
 40
0.0016025003711138
 40
0.0016025003711138
 40
0.0017815410486055
 40
0.0017815410486055
 40
0.0017815410486055
 40
0.0017815410486055
 10
21.00000000000003
 20
78.08784318953136
 30
0.0
 10
21.00000000000003
 20
77.97541959278454
 30
0.0
 10
20.97599877608818
 20
77.86504508711646
 30
0.0
 10
20.92418529899075
 20
77.76487002289404
 30
0.0
 10
20.88190620354158
 20
77.68312852745409
 30
0.0
 10
20.81985177399679
 20
77.60630368018876
 30
0.0
 10
20.73824436250374
 20
77.54074525889023
 30
0.0
 10
20.67072875137037
 20
77.48650733125682
 30
0.0
 10
20.58804527467564
 20
77.43873948330538
 30
0.0
 10
20.4944476722618
 20
77.40179480909644
 30
0.0
 10
20.40035206926487
 20
77.36465356500942
 30
0.0
 10
20.29204057576891
 20
77.33745734993916
 30
0.0
 10
20.18028266441192
 20
77.32370612576342
 30
0.0
 10
20.12125128530698
 20
77.31644262452563
 30
0.0
 10
20.06045267774556
 20
77.31273234848287
 30
0.0
 10
20.00000000000003
 20
77.31273234848287
 30
0.0
  0
LINE
  5
536
330
A
100
AcDbEntity
  8
0
  6
Continuous
 62
     7
370
     0
100
AcDbLine
 10
-1.0
 20
93.79604712203077
 30
0.0
 11
-1.0
 21
91.11897160873892
 31
0.0
  0
LINE
  5
537
330
A
100
AcDbEntity
  8
0
  6
Continuous
 62
     7
370
     0
100
AcDbLine
 10
14.50000000000003
 20
67.19590697360435
 30
0.0
 11
19.40106058675147
 21
75.11300484451054
 31
0.0
  0
LINE
  5
538
330
A
100
AcDbEntity
  8
0
  6
Continuous
 62
     7
370
     0
100
AcDbLine
 10
-1.0
 20
88.4901270055043
 30
0.0
 11
-1.0
 21
91.11897160873891
 31
0.0
  0
LINE
  5
539
330
A
100
AcDbEntity
  8
0
  6
Continuous
 62
     7
370
     0
100
AcDbLine
 10
21.00000000000003
 20
75.79604712203074
 30
0.0
 11
22.00000000000003
 21
75.79604712203074
 31
0.0
  0
LINE
  5
53A
330
A
100
AcDbEntity
  8
0
  6
HIDDEN2
 62
     7
370
     0
100
AcDbLine
 10
14.50000000000003
 20
75.92192744738132
 30
0.0
 11
19.90182219805243
 21
75.92192744738132
 31
0.0
  0
LINE
  5
53B
330
A
100
AcDbEntity
  8
0
  6
HIDDEN2
 62
     7
370
     0
100
AcDbLine
 10
5.5
 20
72.29604712203074
 30
0.0
 11
-5.5
 21
72.29604712203074
 31
0.0
  0
LINE
  5
53C
330
A
100
AcDbEntity
  8
0
  6
HIDDEN2
 62
     7
370
     0
100
AcDbLine
 10
-1.0
 20
80.79604712203074
 30
0.0
 11
22.0
 21
80.79604712203074
 31
0.0
  0
LINE
  5
53D
330
A
100
AcDbEntity
  8
0
  6
HIDDEN2
 62
     7
370
     0
100
AcDbLine
 10
-2.75
 20
72.29604712203077
 30
0.0
 11
-2.75
 21
65.29604712203077
 31
0.0
  0
LINE
  5
53E
330
A
100
AcDbEntity
  8
0
  6
Continuous
 62
     7
370
     0
100
AcDbLine
 10
6.0
 20
88.4901270055043
 30
0.0
 11
6.0
 21
73.29604712203077
 31
0.0
  0
LINE
  5
53F
330
A
100
AcDbEntity
  8
0
  6
Continuous
 62
     7
370
     0
100
AcDbLine
 10
14.50000000000003
 20
73.29604712203074
 30
0.0
 11
6.000000000000028
 21
73.29604712203074
 31
0.0
  0
LINE
  5
540
330
A
100
AcDbEntity
  8
0
  6
Continuous
 62
     7
370
     0
100
AcDbLine
 10
20.00000000000003
 20
77.21842330297572
 30
0.0
 11
20.00000000000003
 21
80.67294149641309
 31
0.0
  0
LINE
  5
541
330
A
100
AcDbEntity
  8
0
  6
HIDDEN2
 62
     7
370
     0
100
AcDbLine
 10
5.5
 20
72.29604712203074
 30
0.0
 11
5.5
 21
73.29604712203074
 31
0.0
  0
LINE
  5
542
330
A
100
AcDbEntity
  8
0
  6
HIDDEN2
 62
     7
370
     0
100
AcDbLine
 10
14.50000000000003
 20
75.92192744738132
 30
0.0
 11
19.90182219805243
 21
75.92192744738132
 31
0.0
  0
LINE
  5
543
330
A
100
AcDbEntity
  8
0
  6
Continuous
 62
     7
370
     0
100
AcDbLine
 10
22.0
 20
93.79604712203073
 30
0.0
 11
22.0
 21
75.79604712203074
 31
0.0
  0
LINE
  5
544
330
A
100
AcDbEntity
  8
0
  6
Continuous
 62
     7
370
     0
100
AcDbLine
 10
21.00000000000003
 20
75.79604712203074
 30
0.0
 11
20.25132573343933
 21
74.58665022989423
 31
0.0
  0
LINE
  5
545
330
A
100
AcDbEntity
  8
0
  6
HIDDEN2
 62
     7
370
     0
100
AcDbLine
 10
14.50000000000003
 20
80.67294149641311
 30
0.0
 11
20.00000000000003
 21
80.67294149641311
 31
0.0
  0
LINE
  5
546
330
A
100
AcDbEntity
  8
0
  6
Continuous
 62
     7
370
     0
100
AcDbLine
 10
6.0
 20
88.4901270055043
 30
0.0
 11
-1.0
 21
88.4901270055043
 31
0.0
  0
LINE
  5
547
330
A
100
AcDbEntity
  8
0
  6
HIDDEN2
 62
     7
370
     0
100
AcDbLine
 10
22.0
 20
88.79604712203077
 30
0.0
 11
-1.0
 21
88.79604712203077
 31
0.0
  0
LINE
  5
548
330
A
100
AcDbEntity
  8
0
  6
Continuous
 62
     7
370
     0
100
AcDbLine
 10
20.00000000000003
 20
77.21842330297572
 30
0.0
 11
21.00000000000003
 21
77.21842330297572
 31
0.0
  0
LINE
  5
549
330
A
100
AcDbEntity
  8
0
  6
Continuous
 62
     7
370
     0
100
AcDbLine
 10
21.00000000000003
 20
79.13919287253837
 30
0.0
 11
21.00000000000003
 21
77.21842330297575
 31
0.0
  0
LINE
  5
54A
330
A
100
AcDbEntity
  8
DV2_0
  6
Continuous
 62
     7
370
     0
100
AcDbLine
 10
14.50000000000003
 20
7.0
 30
0.0
 11
22.00000000000003
 21
7.0
 31
0.0
  0
CIRCLE
  5
54B
330
A
100
AcDbEntity
  8
0
  6
Continuous
 62
     7
370
     0
100
AcDbCircle
 10
0.0
 20
0.0
 30
0.0
 40
5.5
  0
CIRCLE
  5
54C
330
A
100
AcDbEntity
  8
0
  6
Continuous
 62
     7
370
     0
100
AcDbCircle
 10
0.0
 20
32.00000000000001
 30
0.0
 40
5.5
  0
CIRCLE
  5
54D
330
A
100
AcDbEntity
  8
0
  6
Continuous
 62
     7
370
     0
100
AcDbCircle
 10
0.0
 20
32.00000000000001
 30
0.0
 40
2.75
  0
CIRCLE
  5
54E
330
A
100
AcDbEntity
  8
0
  6
Continuous
 62
     7
370
     0
100
AcDbCircle
 10
0.0
 20
0.0
 30
0.0
 40
2.75
  0
LINE
  5
54F
330
A
100
AcDbEntity
  8
0
  6
Continuous
 62
     7
370
     0
100
AcDbLine
 10
14.50000000000003
 20
9.595265350119007
 30
0.0
 11
-0.9999999999999715
 21
9.595265350119007
 31
0.0
  0
LINE
  5
550
330
A
100
AcDbEntity
  8
0
  6
Continuous
 62
     7
370
     0
100
AcDbLine
 10
14.50000000000003
 20
22.40473464988098
 30
0.0
 11
-0.9999999999999715
 21
22.40473464988101
 31
0.0
  0
LINE
  5
551
330
A
100
AcDbEntity
  8
0
  6
Continuous
 62
     7
370
     0
100
AcDbLine
 10
14.50000000000003
 20
-8.0
 30
0.0
 11
6.000000000000028
 21
-8.0
 31
0.0
  0
LINE
  5
552
330
A
100
AcDbEntity
  8
0
  6
Continuous
 62
     7
370
     0
100
AcDbLine
 10
14.50000000000003
 20
40.00000000000001
 30
0.0
 11
6.000000000000028
 21
40.00000000000001
 31
0.0
  0
LINE
  5
553
330
A
100
AcDbEntity
  8
0
  6
Continuous
 62
     7
370
     0
100
AcDbLine
 10
22.0
 20
7.000000000000113
 30
0.0
 11
22.0
 21
24.99999999999993
 31
0.0
  0
LINE
  5
554
330
A
100
AcDbEntity
  8
0
  6
Continuous
 62
     7
370
     0
100
AcDbLine
 10
6.0
 20
24.99999999999999
 30
0.0
 11
-1.0
 21
24.99999999999999
 31
0.0
  0
LINE
  5
555
330
A
100
AcDbEntity
  8
0
  6
Continuous
 62
     7
370
     0
100
AcDbLine
 10
6.0
 20
24.99999999999999
 30
0.0
 11
6.0
 21
39.99999999999999
 31
0.0
  0
LINE
  5
556
330
A
100
AcDbEntity
  8
0
  6
Continuous
 62
     7
370
     0
100
AcDbLine
 10
6.0
 20
40.00000000000001
 30
0.0
 11
-8.0
 21
40.00000000000001
 31
0.0
  0
LINE
  5
557
330
A
100
AcDbEntity
  8
0
  6
Continuous
 62
     7
370
     0
100
AcDbLine
 10
-7.999999999999985
 20
40.00000000000001
 30
0.0
 11
-7.999999999999985
 21
-7.999999999999985
 31
0.0
  0
LINE
  5
558
330
A
100
AcDbEntity
  8
0
  6
Continuous
 62
     7
370
     0
100
AcDbLine
 10
6.0
 20
7.0
 30
0.0
 11
6.0
 21
-8.0
 31
0.0
  0
LINE
  5
559
330
A
100
AcDbEntity
  8
0
  6
Continuous
 62
     7
370
     0
100
AcDbLine
 10
6.0
 20
7.0
 30
0.0
 11
-1.0
 21
7.0
 31
0.0
  0
LINE
  5
55A
330
A
100
AcDbEntity
  8
0
  6
Continuous
 62
     7
370
     0
100
AcDbLine
 10
6.0
 20
-8.0
 30
0.0
 11
-8.0
 21
-8.0
 31
0.0
  0
LINE
  5
55B
330
A
100
AcDbEntity
  8
0
  6
Continuous
 62
     7
370
     0
100
AcDbLine
 10
-1.0
 20
9.595265350118992
 30
0.0
 11
-1.0
 21
22.40473464988101
 31
0.0
  0
LINE
  5
55C
330
A
100
AcDbEntity
  8
0
  6
Continuous
 62
     7
370
     0
100
AcDbLine
 10
-1.0
 20
7.0
 30
0.0
 11
-1.0
 21
9.595265350119007
 31
0.0
  0
LINE
  5
55D
330
A
100
AcDbEntity
  8
0
  6
Continuous
 62
     7
370
     0
100
AcDbLine
 10
-1.0
 20
22.40473464988098
 30
0.0
 11
-1.0
 21
24.99999999999999
 31
0.0
  0
LINE
  5
55E
330
A
100
AcDbEntity
  8
0
  6
Continuous
 62
     7
370
     0
100
AcDbLine
 10
14.50000000000003
 20
-8.0
 30
0.0
 11
14.50000000000003
 21
9.595265350119007
 31
0.0
  0
LINE
  5
55F
330
A
100
AcDbEntity
  8
0
  6
Continuous
 62
     7
370
     0
100
AcDbLine
 10
14.50000000000003
 20
22.40473464988098
 30
0.0
 11
14.50000000000003
 21
39.99999999999999
 31
0.0
  0
LINE
  5
560
330
A
100
AcDbEntity
  8
0
  6
Continuous
 62
     7
370
     0
100
AcDbLine
 10
22.00000000000003
 20
25.00000000000002
 30
0.0
 11
14.50000000000003
 21
25.00000000000002
 31
0.0
  0
ENDSEC
  0
SECTION
  2
OBJECTS
  0
DICTIONARY
  5
19
330
0
100
AcDbDictionary
281
     1
  3
ACAD_COLOR
350
2D6
  3
ACAD_GROUP
350
1A
  3
ACAD_LAYOUT
350
1E
  3
ACAD_MATERIAL
350
2A9
  3
ACAD_MLEADERSTYLE
350
325
  3
ACAD_MLINESTYLE
350
1B
  3
ACAD_PLOTSETTINGS
350
22
  3
ACAD_PLOTSTYLENAME
350
1F
  3
ACAD_SCALELIST
350
2D7
  3
ACAD_TABLESTYLE
350
31F
  3
ACAD_VISUALSTYLE
350
2C2
  3
ACAD_WIPEOUT_VARS
350
23
  3
ACDB_RECOMPOSE_DATA
350
646
  3
AcDbVariableDictionary
350
2A7
  3
ASE_INDEX_DICTIONARY
350
591
  3
DWGPROPS
350
647
  3
qs_topprt_diz
350
45F
  3
QSCATDICT
350
45C
  3
QsPallStyleDict
350
45E
  3
QsTop499
350
5E1
  3
TopSpotLight
350
466
  0
DICTIONARY
  5
5EA
330
7
100
AcDbDictionary
280
     1
281
     1
  0
DICTIONARY
  5
561
330
14
100
AcDbDictionary
280
     1
281
     1
  3
ADSK_XREC_LAYER_RECONCILED
360
562
  0
DICTIONARY
  5
563
330
2D
100
AcDbDictionary
280
     1
281
     1
  3
ADSK_XREC_LAYER_RECONCILED
360
564
  0
DICTIONARY
  5
565
330
2F
100
AcDbDictionary
280
     1
281
     1
  3
ADSK_XREC_LAYER_RECONCILED
360
566
  0
DICTIONARY
  5
567
330
31
100
AcDbDictionary
280
     1
281
     1
  3
ADSK_XREC_LAYER_RECONCILED
360
568
  0
DICTIONARY
  5
569
330
33
100
AcDbDictionary
280
     1
281
     1
  3
ADSK_XREC_LAYER_RECONCILED
360
56A
  0
DICTIONARY
  5
56B
330
35
100
AcDbDictionary
280
     1
281
     1
  3
ADSK_XREC_LAYER_RECONCILED
360
56C
  0
DICTIONARY
  5
56D
330
37
100
AcDbDictionary
280
     1
281
     1
  3
ADSK_XREC_LAYER_RECONCILED
360
56E
  0
DICTIONARY
  5
56F
330
39
100
AcDbDictionary
280
     1
281
     1
  3
ADSK_XREC_LAYER_RECONCILED
360
570
  0
DICTIONARY
  5
571
330
3B
100
AcDbDictionary
280
     1
281
     1
  3
ADSK_XREC_LAYER_RECONCILED
360
572
  0
DICTIONARY
  5
573
330
3D
100
AcDbDictionary
280
     1
281
     1
  3
ADSK_XREC_LAYER_RECONCILED
360
574
  0
DICTIONARY
  5
575
330
3F
100
AcDbDictionary
280
     1
281
     1
  3
ADSK_XREC_LAYER_RECONCILED
360
576
  0
DICTIONARY
  5
577
330
41
100
AcDbDictionary
280
     1
281
     1
  3
ADSK_XREC_LAYER_RECONCILED
360
578
  0
DICTIONARY
  5
579
330
45
100
AcDbDictionary
280
     1
281
     1
  3
ADSK_XREC_LAYER_RECONCILED
360
57A
  0
DICTIONARY
  5
57B
330
47
100
AcDbDictionary
280
     1
281
     1
  3
ADSK_XREC_LAYER_RECONCILED
360
57C
  0
DICTIONARY
  5
57D
330
49
100
AcDbDictionary
280
     1
281
     1
  3
ADSK_XREC_LAYER_RECONCILED
360
57E
  0
DICTIONARY
  5
57F
330
4B
100
AcDbDictionary
280
     1
281
     1
  3
ADSK_XREC_LAYER_RECONCILED
360
580
  0
DICTIONARY
  5
581
330
57
100
AcDbDictionary
280
     1
281
     1
  3
ADSK_XREC_LAYER_RECONCILED
360
582
  0
DICTIONARY
  5
583
330
85
100
AcDbDictionary
280
     1
281
     1
  3
ADSK_XREC_LAYER_RECONCILED
360
584
  0
DICTIONARY
  5
585
330
8D
100
AcDbDictionary
280
     1
281
     1
  3
ADSK_XREC_LAYER_RECONCILED
360
586
  0
DICTIONARY
  5
587
330
95
100
AcDbDictionary
280
     1
281
     1
  3
ADSK_XREC_LAYER_RECONCILED
360
588
  0
DICTIONARY
  5
589
330
9D
100
AcDbDictionary
280
     1
281
     1
  3
ADSK_XREC_LAYER_RECONCILED
360
58A
  0
DICTIONARY
  5
58B
330
461
100
AcDbDictionary
280
     1
281
     1
  3
ADSK_XREC_LAYER_RECONCILED
360
58C
  0
DICTIONARY
  5
676
330
3C6
100
AcDbDictionary
280
     1
281
     1
  3
ACAD_MTEXT_RT
360
677
  0
DICTIONARY
  5
678
330
413
100
AcDbDictionary
280
     1
281
     1
  3
ACAD_MTEXT_RT
360
679
  0
DICTIONARY
  5
67A
330
41A
100
AcDbDictionary
280
     1
281
     1
  3
ACAD_MTEXT_RT
360
67B
  0
DICTIONARY
  5
2D6
102
{ACAD_REACTORS
330
19
102
}
330
19
100
AcDbDictionary
281
     1
  0
DICTIONARY
  5
1A
102
{ACAD_REACTORS
330
19
102
}
330
19
100
AcDbDictionary
281
     1
  0
DICTIONARY
  5
1E
102
{ACAD_REACTORS
330
19
102
}
330
19
100
AcDbDictionary
281
     1
  3
Layout1
350
21
  3
Model
350
20
  0
DICTIONARY
  5
2A9
102
{ACAD_REACTORS
330
19
102
}
330
19
100
AcDbDictionary
281
     1
  3
ByBlock
350
2B2
  3
ByLayer
350
2AA
  3
Global
350
2BA
  0
DICTIONARY
  5
325
102
{ACAD_REACTORS
330
19
102
}
330
19
100
AcDbDictionary
281
     1
  3
Standard
350
326
  0
DICTIONARY
  5
1B
102
{ACAD_REACTORS
330
19
102
}
330
19
100
AcDbDictionary
281
     1
  3
Standard
350
1C
  0
DICTIONARY
  5
22
102
{ACAD_REACTORS
330
19
102
}
330
19
100
AcDbDictionary
281
     1
  3
Kyocera_1010 OR
350
47B
  3
Kyocera_1010 VER
350
47C
  3
Olivetti_200 A3
350
47D
  3
Olivetti_200 A4
350
47E
  3
PLOTTER
350
47F
  0
ACDBDICTIONARYWDFLT
  5
1F
102
{ACAD_REACTORS
330
19
102
}
330
19
100
AcDbDictionary
281
     1
  3
Normal
350
1D
100
AcDbDictionaryWithDefault
340
1D
  0
DICTIONARY
  5
2D7
102
{ACAD_REACTORS
330
19
102
}
330
19
100
AcDbDictionary
281
     1
  3
A0
350
2D8
  3
A1
350
2D9
  3
A2
350
2DA
  3
A3
350
2DB
  3
A4
350
2DC
  3
A5
350
2DD
  3
A6
350
2DE
  3
A7
350
2DF
  3
A8
350
2E0
  3
A9
350
2E1
  3
B0
350
2E2
  3
B1
350
2E3
  3
B2
350
2E4
  3
B3
350
2E5
  3
B4
350
2E6
  3
B5
350
2E7
  3
B6
350
2E8
  3
B7
350
2E9
  3
B8
350
2EA
  3
B9
350
2EB
  3
C0
350
2EC
  3
C1
350
2ED
  3
C2
350
2EE
  3
C3
350
2EF
  3
C4
350
2F0
  3
C5
350
2F1
  3
C6
350
2F2
  3
C7
350
2F3
  3
C8
350
2F4
  3
C9
350
2F5
  3
D0
350
2F6
  3
D1
350
2F7
  3
D2
350
2F8
  0
DICTIONARY
  5
31F
102
{ACAD_REACTORS
330
19
102
}
330
19
100
AcDbDictionary
281
     1
  3
QSTABFORI
350
480
  3
QSTABREGION
350
482
  3
Standard
350
320
  0
DICTIONARY
  5
2C2
102
{ACAD_REACTORS
330
19
102
}
330
19
100
AcDbDictionary
281
     1
  3
2dWireframe
350
2C8
  3
3D Hidden
350
2CA
  3
3dWireframe
350
2C9
  3
Basic
350
2C7
  3
Brighten
350
2CE
  3
ColorChange
350
2D2
  3
Conceptual
350
2CB
  3
Dim
350
2CD
  3
EdgeColorOff
350
2D5
  3
Facepattern
350
2D1
  3
Flat
350
2C3
  3
FlatWithEdges
350
2C4
  3
Gouraud
350
2C5
  3
GouraudWithEdges
350
2C6
  3
Hidden
350
633
  3
JitterOff
350
2D3
  3
Linepattern
350
2D0
  3
OverhangOff
350
2D4
  3
Realistic
350
2CC
  3
Shaded
350
638
  3
Shaded with edges
350
637
  3
Shades of Gray
350
634
  3
Sketchy
350
635
  3
Thicken
350
2CF
  3
Wireframe
350
632
  3
X-Ray
350
636
  0
WIPEOUTVARIABLES
  5
23
330
19
100
AcDbWipeoutVariables
 70
     1
  0
XRECORD
  5
646
102
{ACAD_REACTORS
330
19
102
}
330
19
100
AcDbXrecord
280
     1
 90
        1
330
320
330
480
330
482
  0
DICTIONARY
  5
2A7
330
19
100
AcDbDictionary
281
     0
  3
CANNOSCALE
350
62D
  3
CMLEADERSTYLE
350
62B
  3
CTABLESTYLE
350
62A
  3
DIMASSOC
350
2A8
  3
DRAWORDERCTL
350
62C
  3
INDEXCTL
350
62F
  3
SORTENTS
350
62E
  3
XCLIPFRAME
350
642
  0
DICTIONARY
  5
591
102
{ACAD_REACTORS
330
19
102
}
330
19
100
AcDbDictionary
281
     1
  3
ASEBlockHierarchyIndexRecord
350
593
1001
DCO15
1040
1706954038.31
  0
XRECORD
  5
647
102
{ACAD_REACTORS
330
19
102
}
330
19
100
AcDbXrecord
280
     1
  1
DWGPROPS COOKIE
  2

  3

  4

  6

  7

  8
mpistoia
  9

300
=
301
=
302
=
303
=
304
=
305
=
306
=
307
=
308
=
309
=
 40
0.0013473958333333
 41
2455559.623995081
 42
2455637.36681279
  1

 90
        0
  0
DICTIONARY
  5
45F
102
{ACAD_REACTORS
330
19
102
}
330
19
100
AcDbDictionary
281
     1
  3
UCNT
350
460
  0
DICTIONARY
  5
45C
102
{ACAD_REACTORS
330
19
102
}
330
19
100
AcDbDictionary
281
     1
  3
DEFAULT
350
45D
  0
DICTIONARY
  5
45E
102
{ACAD_REACTORS
330
19
102
}
330
19
100
AcDbDictionary
281
     1
  0
DICTIONARY
  5
5E1
102
{ACAD_REACTORS
330
19
102
}
330
19
100
AcDbDictionary
281
     1
  3
TOP
350
5E3
  3
X4564
350
5E2
  0
DICTIONARY
  5
466
102
{ACAD_REACTORS
330
19
102
}
330
19
100
AcDbDictionary
281
     1
  3
colors
350
467
  0
XRECORD
  5
562
102
{ACAD_REACTORS
330
561
102
}
330
561
100
AcDbXrecord
280
     1
290
     1
  0
XRECORD
  5
564
102
{ACAD_REACTORS
330
563
102
}
330
563
100
AcDbXrecord
280
     1
290
     1
  0
XRECORD
  5
566
102
{ACAD_REACTORS
330
565
102
}
330
565
100
AcDbXrecord
280
     1
290
     1
  0
XRECORD
  5
568
102
{ACAD_REACTORS
330
567
102
}
330
567
100
AcDbXrecord
280
     1
290
     1
  0
XRECORD
  5
56A
102
{ACAD_REACTORS
330
569
102
}
330
569
100
AcDbXrecord
280
     1
290
     1
  0
XRECORD
  5
56C
102
{ACAD_REACTORS
330
56B
102
}
330
56B
100
AcDbXrecord
280
     1
290
     1
  0
XRECORD
  5
56E
102
{ACAD_REACTORS
330
56D
102
}
330
56D
100
AcDbXrecord
280
     1
290
     1
  0
XRECORD
  5
570
102
{ACAD_REACTORS
330
56F
102
}
330
56F
100
AcDbXrecord
280
     1
290
     1
  0
XRECORD
  5
572
102
{ACAD_REACTORS
330
571
102
}
330
571
100
AcDbXrecord
280
     1
290
     1
  0
XRECORD
  5
574
102
{ACAD_REACTORS
330
573
102
}
330
573
100
AcDbXrecord
280
     1
290
     1
  0
XRECORD
  5
576
102
{ACAD_REACTORS
330
575
102
}
330
575
100
AcDbXrecord
280
     1
290
     1
  0
XRECORD
  5
578
102
{ACAD_REACTORS
330
577
102
}
330
577
100
AcDbXrecord
280
     1
290
     1
  0
XRECORD
  5
57A
102
{ACAD_REACTORS
330
579
102
}
330
579
100
AcDbXrecord
280
     1
290
     1
  0
XRECORD
  5
57C
102
{ACAD_REACTORS
330
57B
102
}
330
57B
100
AcDbXrecord
280
     1
290
     1
  0
XRECORD
  5
57E
102
{ACAD_REACTORS
330
57D
102
}
330
57D
100
AcDbXrecord
280
     1
290
     1
  0
XRECORD
  5
580
102
{ACAD_REACTORS
330
57F
102
}
330
57F
100
AcDbXrecord
280
     1
290
     1
  0
XRECORD
  5
582
102
{ACAD_REACTORS
330
581
102
}
330
581
100
AcDbXrecord
280
     1
290
     1
  0
XRECORD
  5
584
102
{ACAD_REACTORS
330
583
102
}
330
583
100
AcDbXrecord
280
     1
290
     1
  0
XRECORD
  5
586
102
{ACAD_REACTORS
330
585
102
}
330
585
100
AcDbXrecord
280
     1
290
     1
  0
XRECORD
  5
588
102
{ACAD_REACTORS
330
587
102
}
330
587
100
AcDbXrecord
280
     1
290
     1
  0
XRECORD
  5
58A
102
{ACAD_REACTORS
330
589
102
}
330
589
100
AcDbXrecord
280
     1
290
     1
  0
XRECORD
  5
58C
102
{ACAD_REACTORS
330
58B
102
}
330
58B
100
AcDbXrecord
280
     1
290
     1
  0
XRECORD
  5
677
102
{ACAD_REACTORS
330
676
102
}
330
676
100
AcDbXrecord
280
     1
 40
9123.0
  1
\A1;\A1;45°
  0
XRECORD
  5
679
102
{ACAD_REACTORS
330
678
102
}
330
678
100
AcDbXrecord
280
     1
 40
8755.0
  1
\A1;\A1;\U+220511
  0
XRECORD
  5
67B
102
{ACAD_REACTORS
330
67A
102
}
330
67A
100
AcDbXrecord
280
     1
 40
8002.0
  1
\A1;\A1;\U+22056
  0
LAYOUT
  5
21
102
{ACAD_XDICTIONARY
360
64A
102
}
102
{ACAD_REACTORS
330
1E
102
}
330
1E
100
AcDbPlotSettings
  1

  2

  4

  6

 40
0.0
 41
0.0
 42
0.0
 43
0.0
 44
0.0
 45
0.0
 46
0.0
 47
0.0
 48
0.0
 49
0.0
140
0.0
141
0.0
142
1.0
143
1.0
 70
     0
 72
     0
 73
     0
 74
     0
  7

 75
     0
147
1.0
148
0.0
149
0.0
100
AcDbLayout
  1
Layout1
 70
     0
 71
     1
 10
0.0
 20
0.0
 11
12.0
 21
9.0
 12
0.0
 22
0.0
 32
0.0
 14
1.000000000000000E+20
 24
1.000000000000000E+20
 34
1.000000000000000E+20
 15
-1.000000000000000E+20
 25
-1.000000000000000E+20
 35
-1.000000000000000E+20
146
0.0
 13
0.0
 23
0.0
 33
0.0
 16
1.0
 26
0.0
 36
0.0
 17
0.0
 27
1.0
 37
0.0
 76
     0
330
B
  0
LAYOUT
  5
20
102
{ACAD_XDICTIONARY
360
648
102
}
102
{ACAD_REACTORS
330
1E
102
}
330
1E
100
AcDbPlotSettings
  1

  2

  4

  6

 40
0.0
 41
0.0
 42
0.0
 43
0.0
 44
0.0
 45
0.0
 46
0.0
 47
0.0
 48
0.0
 49
0.0
140
0.0
141
0.0
142
1.0
143
1.0
 70
  1024
 72
     0
 73
     0
 74
     0
  7

 75
     0
147
1.0
148
0.0
149
0.0
100
AcDbLayout
  1
Model
 70
     0
 71
     0
 10
0.0
 20
0.0
 11
0.0
 21
0.0
 12
0.0
 22
0.0
 32
0.0
 14
0.0
 24
0.0
 34
0.0
 15
0.0
 25
0.0
 35
0.0
146
0.0
 13
0.0
 23
0.0
 33
0.0
 16
0.0
 26
0.0
 36
0.0
 17
0.0
 27
0.0
 37
0.0
 76
     0
330
A
331
15
  0
MATERIAL
  5
2B2
102
{ACAD_XDICTIONARY
360
2B3
102
}
102
{ACAD_REACTORS
330
2A9
102
}
330
2A9
100
AcDbMaterial
  1
ByBlock
 72
     0
 43
0.0208333333333333
 43
0.0
 43
0.0
 43
0.0
 43
0.0
 43
0.0208333333333333
 43
0.0
 43
0.0
 43
0.0
 43
0.0
 43
1.0
 43
0.0
 43
0.0
 43
0.0
 43
0.0
 43
1.0
 77
     0
 47
0.0208333333333333
 47
0.0
 47
0.0
 47
0.0
 47
0.0
 47
0.0208333333333333
 47
0.0
 47
0.0
 47
0.0
 47
0.0
 47
1.0
 47
0.0
 47
0.0
 47
0.0
 47
0.0
 47
1.0
171
     0
 49
0.0208333333333333
 49
0.0
 49
0.0
 49
0.0
 49
0.0
 49
0.0208333333333333
 49
0.0
 49
0.0
 49
0.0
 49
0.0
 49
1.0
 49
0.0
 49
0.0
 49
0.0
 49
0.0
 49
1.0
175
     0
142
0.0208333333333333
142
0.0
142
0.0
142
0.0
142
0.0
142
0.0208333333333333
142
0.0
142
0.0
142
0.0
142
0.0
142
1.0
142
0.0
142
0.0
142
0.0
142
0.0
142
1.0
179
     0
144
0.0208333333333333
144
0.0
144
0.0
144
0.0
144
0.0
144
0.0208333333333333
144
0.0
144
0.0
144
0.0
144
0.0
144
1.0
144
0.0
144
0.0
144
0.0
144
0.0
144
1.0
147
0.0208333333333333
147
0.0
147
0.0
147
0.0
147
0.0
147
0.0208333333333333
147
0.0
147
0.0
147
0.0
147
0.0
147
1.0
147
0.0
147
0.0
147
0.0
147
0.0
147
1.0
  0
MATERIAL
  5
2AA
102
{ACAD_XDICTIONARY
360
2AB
102
}
102
{ACAD_REACTORS
330
2A9
102
}
330
2A9
100
AcDbMaterial
  1
ByLayer
 72
     0
 43
0.0208333333333333
 43
0.0
 43
0.0
 43
0.0
 43
0.0
 43
0.0208333333333333
 43
0.0
 43
0.0
 43
0.0
 43
0.0
 43
1.0
 43
0.0
 43
0.0
 43
0.0
 43
0.0
 43
1.0
 77
     0
 47
0.0208333333333333
 47
0.0
 47
0.0
 47
0.0
 47
0.0
 47
0.0208333333333333
 47
0.0
 47
0.0
 47
0.0
 47
0.0
 47
1.0
 47
0.0
 47
0.0
 47
0.0
 47
0.0
 47
1.0
171
     0
 49
0.0208333333333333
 49
0.0
 49
0.0
 49
0.0
 49
0.0
 49
0.0208333333333333
 49
0.0
 49
0.0
 49
0.0
 49
0.0
 49
1.0
 49
0.0
 49
0.0
 49
0.0
 49
0.0
 49
1.0
175
     0
142
0.0208333333333333
142
0.0
142
0.0
142
0.0
142
0.0
142
0.0208333333333333
142
0.0
142
0.0
142
0.0
142
0.0
142
1.0
142
0.0
142
0.0
142
0.0
142
0.0
142
1.0
179
     0
144
0.0208333333333333
144
0.0
144
0.0
144
0.0
144
0.0
144
0.0208333333333333
144
0.0
144
0.0
144
0.0
144
0.0
144
1.0
144
0.0
144
0.0
144
0.0
144
0.0
144
1.0
147
0.0208333333333333
147
0.0
147
0.0
147
0.0
147
0.0
147
0.0208333333333333
147
0.0
147
0.0
147
0.0
147
0.0
147
1.0
147
0.0
147
0.0
147
0.0
147
0.0
147
1.0
  0
MATERIAL
  5
2BA
102
{ACAD_XDICTIONARY
360
2BB
102
}
102
{ACAD_REACTORS
330
2A9
102
}
330
2A9
100
AcDbMaterial
  1
Global
 72
     0
 43
0.0208333333333333
 43
0.0
 43
0.0
 43
0.0
 43
0.0
 43
0.0208333333333333
 43
0.0
 43
0.0
 43
0.0
 43
0.0
 43
1.0
 43
0.0
 43
0.0
 43
0.0
 43
0.0
 43
1.0
 77
     0
 47
0.0208333333333333
 47
0.0
 47
0.0
 47
0.0
 47
0.0
 47
0.0208333333333333
 47
0.0
 47
0.0
 47
0.0
 47
0.0
 47
1.0
 47
0.0
 47
0.0
 47
0.0
 47
0.0
 47
1.0
171
     0
 49
0.0208333333333333
 49
0.0
 49
0.0
 49
0.0
 49
0.0
 49
0.0208333333333333
 49
0.0
 49
0.0
 49
0.0
 49
0.0
 49
1.0
 49
0.0
 49
0.0
 49
0.0
 49
0.0
 49
1.0
175
     0
142
0.0208333333333333
142
0.0
142
0.0
142
0.0
142
0.0
142
0.0208333333333333
142
0.0
142
0.0
142
0.0
142
0.0
142
1.0
142
0.0
142
0.0
142
0.0
142
0.0
142
1.0
179
     0
144
0.0208333333333333
144
0.0
144
0.0
144
0.0
144
0.0
144
0.0208333333333333
144
0.0
144
0.0
144
0.0
144
0.0
144
1.0
144
0.0
144
0.0
144
0.0
144
0.0
144
1.0
147
0.0208333333333333
147
0.0
147
0.0
147
0.0
147
0.0
147
0.0208333333333333
147
0.0
147
0.0
147
0.0
147
0.0
147
1.0
147
0.0
147
0.0
147
0.0
147
0.0
147
1.0
  0
MLEADERSTYLE
  5
326
102
{ACAD_REACTORS
330
325
102
}
330
325
100
AcDbMLeaderStyle
170
     2
171
     1
172
     0
 90
        2
 40
0.0
 41
0.0
173
     1
 91
-1056964608
340
11
 92
       -2
290
     1
 42
0.09
291
     1
 43
0.36
  3
Standard
 44
0.18
300

342
17
174
     1
178
     6
175
     1
176
     0
 93
-1056964608
 45
0.18
292
     0
297
     0
 46
0.18
 94
-1056964608
 47
1.0
 49
1.0
140
1.0
293
     1
141
0.0
294
     1
177
     0
142
1.0
295
     0
296
     0
143
0.125
1001
ACAD_MLEADERVER
1070
     2
  0
MLINESTYLE
  5
1C
102
{ACAD_REACTORS
330
1B
102
}
330
1B
100
AcDbMlineStyle
  2
STANDARD
 70
     0
  3

 62
     0
 51
90.0
 52
90.0
 71
     2
 49
0.5
 62
   256
  6
BYLAYER
 49
-0.5
 62
   256
  6
BYLAYER
  0
PLOTSETTINGS
  5
47B
102
{ACAD_XDICTIONARY
360
67C
102
}
102
{ACAD_REACTORS
330
22
102
}
330
22
100
AcDbPlotSettings
  1
Kyocera_1010 OR
  2
Kyocera_1010.pc3
  4
A4
  6

 40
4.984749794006347
 41
5.154074668884277
 42
5.111740112304687
 43
4.9847412109375
 44
210.0156707763672
 45
297.0106506347656
 46
0.0
 47
109.7870247470818
 48
0.0
 49
0.0
140
0.0
141
0.0
142
1.0
143
0.6770771918566143
 70
 11956
 72
     1
 73
     1
 74
     1
  7
DIERRE BN.ctb
 75
     0
147
1.476936473458659
148
-222.4649060220283
149
-239.0808115236937
1001
ACAD_PSEXT
1000
Kyocera_1010.pc3
1000
Kyocera Mita FS-1010 KX
1000
\\PC5
1000

1070
     0
  0
PLOTSETTINGS
  5
47C
102
{ACAD_XDICTIONARY
360
67E
102
}
102
{ACAD_REACTORS
330
22
102
}
330
22
100
AcDbPlotSettings
  1
Kyocera_1010 VER
  2
Kyocera_1010.pc3
  4
A4
  6

 40
4.984749794006347
 41
5.154074668884277
 42
5.111740112304687
 43
4.9847412109375
 44
210.0156707763672
 45
297.0106506347656
 46
51.67548120477697
 47
0.0
 48
0.0
 49
0.0
140
0.0
141
0.0
142
1.0
143
0.4718508448115938
 70
 11956
 72
     1
 73
     0
 74
     1
  7
DIERRE BN.ctb
 75
     0
147
2.119313785268927
148
-222.4649060220283
149
-239.0808115236937
1001
ACAD_PSEXT
1000
Kyocera_1010.pc3
1000
Kyocera Mita FS-1010 KX
1000
\\PC5
1000

1070
     0
  0
PLOTSETTINGS
  5
47D
102
{ACAD_XDICTIONARY
360
680
102
}
102
{ACAD_REACTORS
330
22
102
}
330
22
100
AcDbPlotSettings
  1
Olivetti_200 A3
  2
Olivetti_200.pc3
  4
A3
  6

 40
4.984749794006347
 41
5.111746788024902
 42
5.154083251953125
 43
4.9847412109375
 44
297.0106506347656
 45
419.9889831542968
 46
0.0
 47
156.6621412366913
 48
0.0
 49
0.0
140
0.0
141
0.0
142
1.0
143
0.4718508730467012
 70
 11956
 72
     1
 73
     1
 74
     1
  7
DIERRE BN.ctb
 75
     0
147
2.119313658451206
148
-222.4649060220283
149
-239.0808115236937
1001
ACAD_PSEXT
1000
Olivetti_200.pc3
1000
Olivetti d-Copia 200MF KX
1000
IP_192.168.1.151
1000

1070
     0
  0
PLOTSETTINGS
  5
47E
102
{ACAD_XDICTIONARY
360
682
102
}
102
{ACAD_REACTORS
330
22
102
}
330
22
100
AcDbPlotSettings
  1
Olivetti_200 A4
  2
Olivetti_200.pc3
  4
A4
  6

 40
4.984749794006347
 41
5.154074668884277
 42
5.111740112304687
 43
4.9847412109375
 44
210.0156707763672
 45
297.0106506347656
 46
51.67548120477697
 47
0.0
 48
0.0
 49
0.0
140
0.0
141
0.0
142
1.0
143
0.4718508448115938
 70
 11956
 72
     1
 73
     0
 74
     1
  7
DIERRE BN.ctb
 75
     0
147
2.119313785268927
148
-222.4649060220283
149
-239.0808115236937
1001
ACAD_PSEXT
1000
Olivetti_200.pc3
1000
Olivetti d-Copia 200MF KX
1000
IP_192.168.1.151
1000

1070
     0
  0
PLOTSETTINGS
  5
47F
102
{ACAD_XDICTIONARY
360
684
102
}
102
{ACAD_REACTORS
330
22
102
}
330
22
100
AcDbPlotSettings
  1
PLOTTER
  2
PLOTTER.pc3
  4
User622
  6

 40
0.0
 41
0.0
 42
0.0
 43
0.0
 44
841.0
 45
1189.0
 46
0.0
 47
0.0
 48
0.0
 49
0.0
140
0.0
141
0.0
142
1.0
143
1.0
 70
 11936
 72
     1
 73
     0
 74
     1
  7
DIERRE BN.ctb
 75
     0
147
2.194137304425714
148
-222.4649060220283
149
-239.0808115236937
1001
ACAD_PSEXT
1000
PLOTTER.pc3
1000
HP DesignJet 430 (E/A0) by HP
1000
\\SERVER2003
1000

1070
     0
  0
ACDBPLACEHOLDER
  5
1D
102
{ACAD_REACTORS
330
1F
102
}
330
1F
  0
SCALE
  5
2D8
102
{ACAD_REACTORS
330
2D7
102
}
330
2D7
100
AcDbScale
 70
     0
300
1:1
140
1.0
141
1.0
290
     1
  0
SCALE
  5
2D9
102
{ACAD_REACTORS
330
2D7
102
}
330
2D7
100
AcDbScale
 70
     0
300
1:2
140
1.0
141
2.0
290
     0
  0
SCALE
  5
2DA
102
{ACAD_REACTORS
330
2D7
102
}
330
2D7
100
AcDbScale
 70
     0
300
1:4
140
1.0
141
4.0
290
     0
  0
SCALE
  5
2DB
102
{ACAD_REACTORS
330
2D7
102
}
330
2D7
100
AcDbScale
 70
     0
300
1:5
140
1.0
141
5.0
290
     0
  0
SCALE
  5
2DC
102
{ACAD_REACTORS
330
2D7
102
}
330
2D7
100
AcDbScale
 70
     0
300
1:8
140
1.0
141
8.0
290
     0
  0
SCALE
  5
2DD
102
{ACAD_REACTORS
330
2D7
102
}
330
2D7
100
AcDbScale
 70
     0
300
1:10
140
1.0
141
10.0
290
     0
  0
SCALE
  5
2DE
102
{ACAD_REACTORS
330
2D7
102
}
330
2D7
100
AcDbScale
 70
     0
300
1:16
140
1.0
141
16.0
290
     0
  0
SCALE
  5
2DF
102
{ACAD_REACTORS
330
2D7
102
}
330
2D7
100
AcDbScale
 70
     0
300
1:20
140
1.0
141
20.0
290
     0
  0
SCALE
  5
2E0
102
{ACAD_REACTORS
330
2D7
102
}
330
2D7
100
AcDbScale
 70
     0
300
1:30
140
1.0
141
30.0
290
     0
  0
SCALE
  5
2E1
102
{ACAD_REACTORS
330
2D7
102
}
330
2D7
100
AcDbScale
 70
     0
300
1:40
140
1.0
141
40.0
290
     0
  0
SCALE
  5
2E2
102
{ACAD_REACTORS
330
2D7
102
}
330
2D7
100
AcDbScale
 70
     0
300
1:50
140
1.0
141
50.0
290
     0
  0
SCALE
  5
2E3
102
{ACAD_REACTORS
330
2D7
102
}
330
2D7
100
AcDbScale
 70
     0
300
1:100
140
1.0
141
100.0
290
     0
  0
SCALE
  5
2E4
102
{ACAD_REACTORS
330
2D7
102
}
330
2D7
100
AcDbScale
 70
     0
300
2:1
140
2.0
141
1.0
290
     0
  0
SCALE
  5
2E5
102
{ACAD_REACTORS
330
2D7
102
}
330
2D7
100
AcDbScale
 70
     0
300
4:1
140
4.0
141
1.0
290
     0
  0
SCALE
  5
2E6
102
{ACAD_REACTORS
330
2D7
102
}
330
2D7
100
AcDbScale
 70
     0
300
8:1
140
8.0
141
1.0
290
     0
  0
SCALE
  5
2E7
102
{ACAD_REACTORS
330
2D7
102
}
330
2D7
100
AcDbScale
 70
     0
300
10:1
140
10.0
141
1.0
290
     0
  0
SCALE
  5
2E8
102
{ACAD_REACTORS
330
2D7
102
}
330
2D7
100
AcDbScale
 70
     0
300
100:1
140
100.0
141
1.0
290
     0
  0
SCALE
  5
2E9
102
{ACAD_REACTORS
330
2D7
102
}
330
2D7
100
AcDbScale
 70
     0
300
1/128" = 1'-0"
140
0.0078125
141
12.0
290
     0
  0
SCALE
  5
2EA
102
{ACAD_REACTORS
330
2D7
102
}
330
2D7
100
AcDbScale
 70
     0
300
1/64" = 1'-0"
140
0.015625
141
12.0
290
     0
  0
SCALE
  5
2EB
102
{ACAD_REACTORS
330
2D7
102
}
330
2D7
100
AcDbScale
 70
     0
300
1/32" = 1'-0"
140
0.03125
141
12.0
290
     0
  0
SCALE
  5
2EC
102
{ACAD_REACTORS
330
2D7
102
}
330
2D7
100
AcDbScale
 70
     0
300
1/16" = 1'-0"
140
0.0625
141
12.0
290
     0
  0
SCALE
  5
2ED
102
{ACAD_REACTORS
330
2D7
102
}
330
2D7
100
AcDbScale
 70
     0
300
3/32" = 1'-0"
140
0.09375
141
12.0
290
     0
  0
SCALE
  5
2EE
102
{ACAD_REACTORS
330
2D7
102
}
330
2D7
100
AcDbScale
 70
     0
300
1/8" = 1'-0"
140
0.125
141
12.0
290
     0
  0
SCALE
  5
2EF
102
{ACAD_REACTORS
330
2D7
102
}
330
2D7
100
AcDbScale
 70
     0
300
3/16" = 1'-0"
140
0.1875
141
12.0
290
     0
  0
SCALE
  5
2F0
102
{ACAD_REACTORS
330
2D7
102
}
330
2D7
100
AcDbScale
 70
     0
300
1/4" = 1'-0"
140
0.25
141
12.0
290
     0
  0
SCALE
  5
2F1
102
{ACAD_REACTORS
330
2D7
102
}
330
2D7
100
AcDbScale
 70
     0
300
3/8" = 1'-0"
140
0.375
141
12.0
290
     0
  0
SCALE
  5
2F2
102
{ACAD_REACTORS
330
2D7
102
}
330
2D7
100
AcDbScale
 70
     0
300
1/2" = 1'-0"
140
0.5
141
12.0
290
     0
  0
SCALE
  5
2F3
102
{ACAD_REACTORS
330
2D7
102
}
330
2D7
100
AcDbScale
 70
     0
300
3/4" = 1'-0"
140
0.75
141
12.0
290
     0
  0
SCALE
  5
2F4
102
{ACAD_REACTORS
330
2D7
102
}
330
2D7
100
AcDbScale
 70
     0
300
1" = 1'-0"
140
1.0
141
12.0
290
     0
  0
SCALE
  5
2F5
102
{ACAD_REACTORS
330
2D7
102
}
330
2D7
100
AcDbScale
 70
     0
300
1-1/2" = 1'-0"
140
1.5
141
12.0
290
     0
  0
SCALE
  5
2F6
102
{ACAD_REACTORS
330
2D7
102
}
330
2D7
100
AcDbScale
 70
     0
300
3" = 1'-0"
140
3.0
141
12.0
290
     0
  0
SCALE
  5
2F7
102
{ACAD_REACTORS
330
2D7
102
}
330
2D7
100
AcDbScale
 70
     0
300
6" = 1'-0"
140
6.0
141
12.0
290
     0
  0
SCALE
  5
2F8
102
{ACAD_REACTORS
330
2D7
102
}
330
2D7
100
AcDbScale
 70
     0
300
1'-0" = 1'-0"
140
12.0
141
12.0
290
     0
  0
TABLESTYLE
  5
480
102
{ACAD_XDICTIONARY
360
481
102
}
102
{ACAD_REACTORS
330
31F
102
}
330
31F
100
AcDbTableStyle
  3
Standard
 70
     1
 71
     0
 40
1.5
 41
1.5
280
     1
281
     0
  7
ROMANS
140
3.0
170
     5
 62
     7
 63
     7
283
     0
274
    -2
284
     1
 64
     0
275
    -2
285
     1
 65
     0
276
    -2
286
     1
 66
     0
277
    -2
287
     1
 67
     0
278
    -2
288
     1
 68
     0
279
    -2
289
     1
 69
     0
  7
ROMANS
140
6.0
170
     5
 62
     1
 63
     7
283
     0
274
    -2
284
     1
 64
     0
275
    -2
285
     1
 65
     0
276
    -2
286
     1
 66
     0
277
    -2
287
     1
 67
     0
278
    -2
288
     1
 68
     0
279
    -2
289
     1
 69
     0
  7
ROMANS
140
3.5
170
     5
 62
     3
 63
     7
283
     0
274
    -2
284
     1
 64
     0
275
    -2
285
     1
 65
     0
276
    -2
286
     1
 66
     0
277
    -2
287
     1
 67
     0
278
    -2
288
     1
 68
     0
279
    -2
289
     1
 69
     0
  0
TABLESTYLE
  5
482
102
{ACAD_XDICTIONARY
360
483
102
}
102
{ACAD_REACTORS
330
31F
102
}
330
31F
100
AcDbTableStyle
  3
Standard
 70
     0
 71
     0
 40
1.5
 41
1.5
280
     0
281
     0
  7
ROMANS
140
4.5
170
     5
 62
     7
 63
     7
283
     0
274
    -2
284
     1
 64
     0
275
    -2
285
     1
 65
     0
276
    -2
286
     1
 66
     0
277
    -2
287
     1
 67
     0
278
    -2
288
     1
 68
     0
279
    -2
289
     1
 69
     0
  7
ROMANS
140
6.0
170
     5
 62
     1
 63
     7
283
     0
274
    -2
284
     1
 64
     0
275
    -2
285
     1
 65
     0
276
    -2
286
     1
 66
     0
277
    -2
287
     1
 67
     0
278
    -2
288
     1
 68
     0
279
    -2
289
     1
 69
     0
  7
ROMANS
140
5.0
170
     5
 62
     3
 63
     7
283
     0
274
    -2
284
     1
 64
     0
275
    -2
285
     1
 65
     0
276
    -2
286
     1
 66
     0
277
    -2
287
     1
 67
     0
278
    -2
288
     1
 68
     0
279
    -2
289
     1
 69
     0
  0
TABLESTYLE
  5
320
102
{ACAD_XDICTIONARY
360
5E4
102
}
102
{ACAD_REACTORS
330
31F
102
}
330
31F
100
AcDbTableStyle
  3
Standard
 70
     0
 71
     0
 40
0.06
 41
0.06
280
     0
281
     0
  7
Standard
140
0.18
170
     2
 62
     0
 63
     7
283
     0
274
    -2
284
     1
 64
     0
275
    -2
285
     1
 65
     0
276
    -2
286
     1
 66
     0
277
    -2
287
     1
 67
     0
278
    -2
288
     1
 68
     0
279
    -2
289
     1
 69
     0
  7
Standard
140
0.25
170
     5
 62
     0
 63
     7
283
     0
274
    -2
284
     1
 64
     0
275
    -2
285
     1
 65
     0
276
    -2
286
     1
 66
     0
277
    -2
287
     1
 67
     0
278
    -2
288
     1
 68
     0
279
    -2
289
     1
 69
     0
  7
Standard
140
0.18
170
     5
 62
     0
 63
     7
283
     0
274
    -2
284
     1
 64
     0
275
    -2
285
     1
 65
     0
276
    -2
286
     1
 66
     0
277
    -2
287
     1
 67
     0
278
    -2
288
     1
 68
     0
279
    -2
289
     1
 69
     0
  0
VISUALSTYLE
  5
2C8
102
{ACAD_XDICTIONARY
360
659
102
}
102
{ACAD_REACTORS
330
2C2
102
}
330
2C2
100
AcDbVisualStyle
  2
2dWireframe
 70
     4
 71
     0
 72
     2
 73
     0
 90
        0
 40
-0.6
 41
-30.0
 62
     5
 63
     7
 74
     1
 91
        4
 64
     7
 65
   257
 75
     1
175
     1
 42
1.0
 92
        0
 66
   257
 43
1.0
 76
     1
 77
     6
 78
     2
 67
     7
 79
     5
170
     0
171
     0
290
     0
174
     0
 93
        1
 44
0.0
173
     0
291
     0
 45
0.0
1001
ACAD
1000
AcDbSavedByObjectVersion
1070
     0
  0
VISUALSTYLE
  5
2CA
102
{ACAD_XDICTIONARY
360
65D
102
}
102
{ACAD_REACTORS
330
2C2
102
}
330
2C2
100
AcDbVisualStyle
  2
3D Hidden
 70
     6
 71
     1
 72
     2
 73
     2
 90
        0
 40
-0.6
 41
-30.0
 62
     5
 63
     7
 74
     2
 91
        2
 64
     7
 65
   257
 75
     2
175
     1
 42
179.0
 92
        0
 66
   257
 43
1.0
 76
     1
 77
     6
 78
     2
 67
     7
 79
     3
170
     0
171
     0
290
     0
174
     0
 93
        1
 44
0.0
173
     0
291
     0
 45
0.0
1001
ACAD
1000
AcDbSavedByObjectVersion
1070
     0
  0
VISUALSTYLE
  5
2C9
102
{ACAD_XDICTIONARY
360
65B
102
}
102
{ACAD_REACTORS
330
2C2
102
}
330
2C2
100
AcDbVisualStyle
  2
3dWireframe
 70
     5
 71
     0
 72
     2
 73
     0
 90
        0
 40
-0.6
 41
-30.0
 62
     5
 63
     7
 74
     1
 91
        4
 64
     7
 65
   257
 75
     1
175
     1
 42
1.0
 92
        0
 66
   257
 43
1.0
 76
     1
 77
     6
 78
     2
 67
     7
 79
     5
170
     0
171
     0
290
     0
174
     0
 93
        1
 44
0.0
173
     0
291
     0
 45
0.0
1001
ACAD
1000
AcDbSavedByObjectVersion
1070
     0
  0
VISUALSTYLE
  5
2C7
102
{ACAD_XDICTIONARY
360
657
102
}
102
{ACAD_REACTORS
330
2C2
102
}
330
2C2
100
AcDbVisualStyle
  2
Basic
 70
     7
 71
     1
 72
     0
 73
     1
 90
        0
 40
-0.6
 41
-30.0
 62
     5
 63
     7
 74
     0
 91
        4
 64
     7
 65
   257
 75
     1
175
     1
 42
1.0
 92
        8
 66
     7
 43
1.0
 76
     1
 77
     6
 78
     2
 67
     7
 79
     5
170
     0
171
     0
290
     0
174
     0
 93
        1
 44
0.0
173
     0
291
     1
 45
0.0
1001
ACAD
1000
AcDbSavedByObjectVersion
1070
     0
  0
VISUALSTYLE
  5
2CE
102
{ACAD_XDICTIONARY
360
665
102
}
102
{ACAD_REACTORS
330
2C2
102
}
330
2C2
100
AcDbVisualStyle
  2
Brighten
 70
    12
 71
     2
 72
     2
 73
     0
 90
        0
 40
-0.6
 41
-30.0
 62
     5
 63
     7
 74
     1
 91
        4
 64
     7
 65
   257
 75
     1
175
     1
 42
1.0
 92
        8
 66
     7
 43
1.0
 76
     1
 77
     6
 78
     2
 67
     7
 79
     5
170
     0
171
     0
290
     0
174
     0
 93
        1
 44
50.0
173
     0
291
     1
 45
0.0
1001
ACAD
1000
AcDbSavedByObjectVersion
1070
     0
  0
VISUALSTYLE
  5
2D2
102
{ACAD_XDICTIONARY
360
66D
102
}
102
{ACAD_REACTORS
330
2C2
102
}
330
2C2
100
AcDbVisualStyle
  2
ColorChange
 70
    16
 71
     2
 72
     2
 73
     3
 90
        0
 40
-0.6
 41
-30.0
 62
     5
 63
     8
 74
     1
 91
        4
 64
     7
 65
   257
 75
     1
175
     1
 42
1.0
 92
        8
 66
     8
 43
1.0
 76
     1
 77
     6
 78
     2
 67
     7
 79
     5
170
     0
171
     0
290
     0
174
     0
 93
        1
 44
0.0
173
     0
291
     1
 45
0.0
1001
ACAD
1000
AcDbSavedByObjectVersion
1070
     0
  0
VISUALSTYLE
  5
2CB
102
{ACAD_XDICTIONARY
360
65F
102
}
102
{ACAD_REACTORS
330
2C2
102
}
330
2C2
100
AcDbVisualStyle
  2
Conceptual
 70
     9
 71
     3
 72
     2
 73
     0
 90
        0
 40
-0.6
 41
-30.0
 62
     5
 63
     7
 74
     2
 91
        2
 64
     7
 65
   257
 75
     1
175
     1
 42
179.0
 92
        8
 66
     7
 43
1.0
 76
     1
 77
     6
 78
     2
 67
     7
 79
     3
170
     0
171
     0
290
     0
174
     0
 93
        1
 44
0.0
173
     0
291
     0
 45
0.0
1001
ACAD
1000
AcDbSavedByObjectVersion
1070
     0
  0
VISUALSTYLE
  5
2CD
102
{ACAD_XDICTIONARY
360
663
102
}
102
{ACAD_REACTORS
330
2C2
102
}
330
2C2
100
AcDbVisualStyle
  2
Dim
 70
    11
 71
     2
 72
     2
 73
     0
 90
        0
 40
-0.6
 41
-30.0
 62
     5
 63
     7
 74
     1
 91
        4
 64
     7
 65
   257
 75
     1
175
     1
 42
1.0
 92
        8
 66
     7
 43
1.0
 76
     1
 77
     6
 78
     2
 67
     7
 79
     5
170
     0
171
     0
290
     0
174
     0
 93
        1
 44
-50.0
173
     0
291
     1
 45
0.0
1001
ACAD
1000
AcDbSavedByObjectVersion
1070
     0
  0
VISUALSTYLE
  5
2D5
102
{ACAD_XDICTIONARY
360
673
102
}
102
{ACAD_REACTORS
330
2C2
102
}
330
2C2
100
AcDbVisualStyle
  2
EdgeColorOff
 70
    22
 71
     2
 72
     2
 73
     0
 90
        0
 40
-0.6
 41
-30.0
 62
     5
 63
     7
 74
     1
 91
        4
 64
     7
 65
   257
 75
     1
175
     1
 42
1.0
 92
        8
 66
     7
 43
1.0
 76
     1
 77
     6
 78
     2
 67
     7
 79
     5
170
     0
171
     0
290
     0
174
     0
 93
        1
 44
0.0
173
     0
291
     1
 45
0.0
1001
ACAD
1000
AcDbSavedByObjectVersion
1070
     0
  0
VISUALSTYLE
  5
2D1
102
{ACAD_XDICTIONARY
360
66B
102
}
102
{ACAD_REACTORS
330
2C2
102
}
330
2C2
100
AcDbVisualStyle
  2
Facepattern
 70
    15
 71
     2
 72
     2
 73
     0
 90
        0
 40
-0.6
 41
-30.0
 62
     5
 63
     7
 74
     1
 91
        4
 64
     7
 65
   257
 75
     1
175
     1
 42
1.0
 92
        8
 66
     7
 43
1.0
 76
     1
 77
     6
 78
     2
 67
     7
 79
     5
170
     0
171
     0
290
     0
174
     0
 93
        1
 44
0.0
173
     0
291
     1
 45
0.0
1001
ACAD
1000
AcDbSavedByObjectVersion
1070
     0
  0
VISUALSTYLE
  5
2C3
102
{ACAD_XDICTIONARY
360
64F
102
}
102
{ACAD_REACTORS
330
2C2
102
}
330
2C2
100
AcDbVisualStyle
  2
Flat
 70
     0
 71
     2
 72
     1
 73
     1
 90
        2
 40
-0.6
 41
30.0
 62
     5
 63
     7
 74
     0
 91
        4
 64
     7
 65
   257
 75
     1
175
     1
 42
1.0
 92
        8
 66
     7
 43
1.0
 76
     1
 77
     6
 78
     2
 67
     7
 79
     5
170
     0
171
     0
290
     0
174
     0
 93
       13
 44
0.0
173
     0
291
     1
 45
0.0
1001
ACAD
1000
AcDbSavedByObjectVersion
1070
     0
  0
VISUALSTYLE
  5
2C4
102
{ACAD_XDICTIONARY
360
651
102
}
102
{ACAD_REACTORS
330
2C2
102
}
330
2C2
100
AcDbVisualStyle
  2
FlatWithEdges
 70
     1
 71
     2
 72
     1
 73
     1
 90
        2
 40
-0.6
 41
30.0
 62
     5
 63
     7
 74
     1
 91
        4
 64
     7
 65
   257
 75
     1
175
     1
 42
1.0
 92
        0
 66
   257
 43
1.0
 76
     1
 77
     6
 78
     2
 67
     7
 79
     5
170
     0
171
     0
290
     0
174
     0
 93
       13
 44
0.0
173
     0
291
     1
 45
0.0
1001
ACAD
1000
AcDbSavedByObjectVersion
1070
     0
  0
VISUALSTYLE
  5
2C5
102
{ACAD_XDICTIONARY
360
653
102
}
102
{ACAD_REACTORS
330
2C2
102
}
330
2C2
100
AcDbVisualStyle
  2
Gouraud
 70
     2
 71
     2
 72
     2
 73
     1
 90
        2
 40
-0.6
 41
30.0
 62
     5
 63
     7
 74
     0
 91
        4
 64
     7
 65
   257
 75
     1
175
     1
 42
1.0
 92
        0
 66
     7
 43
1.0
 76
     1
 77
     6
 78
     2
 67
     7
 79
     5
170
     0
171
     0
290
     0
174
     0
 93
       13
 44
0.0
173
     0
291
     1
 45
0.0
1001
ACAD
1000
AcDbSavedByObjectVersion
1070
     0
  0
VISUALSTYLE
  5
2C6
102
{ACAD_XDICTIONARY
360
655
102
}
102
{ACAD_REACTORS
330
2C2
102
}
330
2C2
100
AcDbVisualStyle
  2
GouraudWithEdges
 70
     3
 71
     2
 72
     2
 73
     1
 90
        2
 40
-0.6
 41
30.0
 62
     5
 63
     7
 74
     1
 91
        4
 64
     7
 65
   257
 75
     1
175
     1
 42
1.0
 92
        0
 66
   257
 43
1.0
 76
     1
 77
     6
 78
     2
 67
     7
 79
     5
170
     0
171
     0
290
     0
174
     0
 93
       13
 44
0.0
173
     0
291
     1
 45
0.0
1001
ACAD
1000
AcDbSavedByObjectVersion
1070
     0
  0
VISUALSTYLE
  5
633
102
{ACAD_XDICTIONARY
360
68A
102
}
102
{ACAD_REACTORS
330
2C2
102
}
330
2C2
100
AcDbVisualStyle
  2
Hidden
 70
     6
 71
     1
 72
     2
 73
     2
 90
        0
 40
-0.6
 41
-30.0
 62
     5
 63
     7
 74
     2
 91
        2
 64
     7
 65
   257
 75
     2
175
     1
 42
40.0
 92
        0
 66
   257
 43
1.0
 76
     1
 77
     6
 78
     2
 67
     7
 79
     3
170
     0
171
     0
290
     0
174
     0
 93
        1
 44
0.0
173
     0
291
     0
 45
0.0
1001
ACAD
1000
AcDbSavedByObjectVersion
1070
     0
  0
VISUALSTYLE
  5
2D3
102
{ACAD_XDICTIONARY
360
66F
102
}
102
{ACAD_REACTORS
330
2C2
102
}
330
2C2
100
AcDbVisualStyle
  2
JitterOff
 70
    20
 71
     2
 72
     2
 73
     0
 90
        0
 40
-0.6
 41
-30.0
 62
     5
 63
     7
 74
     1
 91
        4
 64
     7
 65
   257
 75
     1
175
     1
 42
1.0
 92
       10
 66
     7
 43
1.0
 76
     1
 77
     6
 78
     2
 67
     7
 79
     5
170
     0
171
     0
290
     0
174
     0
 93
        1
 44
0.0
173
     0
291
     1
 45
0.0
1001
ACAD
1000
AcDbSavedByObjectVersion
1070
     0
  0
VISUALSTYLE
  5
2D0
102
{ACAD_XDICTIONARY
360
669
102
}
102
{ACAD_REACTORS
330
2C2
102
}
330
2C2
100
AcDbVisualStyle
  2
Linepattern
 70
    14
 71
     2
 72
     2
 73
     0
 90
        0
 40
-0.6
 41
-30.0
 62
     5
 63
     7
 74
     1
 91
        4
 64
     7
 65
   257
 75
     7
175
     7
 42
1.0
 92
        8
 66
     7
 43
1.0
 76
     1
 77
     6
 78
     2
 67
     7
 79
     5
170
     0
171
     0
290
     0
174
     0
 93
        1
 44
0.0
173
     0
291
     1
 45
0.0
1001
ACAD
1000
AcDbSavedByObjectVersion
1070
     0
  0
VISUALSTYLE
  5
2D4
102
{ACAD_XDICTIONARY
360
671
102
}
102
{ACAD_REACTORS
330
2C2
102
}
330
2C2
100
AcDbVisualStyle
  2
OverhangOff
 70
    21
 71
     2
 72
     2
 73
     0
 90
        0
 40
-0.6
 41
-30.0
 62
     5
 63
     7
 74
     1
 91
        4
 64
     7
 65
   257
 75
     1
175
     1
 42
1.0
 92
        9
 66
     7
 43
1.0
 76
     1
 77
     6
 78
     2
 67
     7
 79
     5
170
     0
171
     0
290
     0
174
     0
 93
        1
 44
0.0
173
     0
291
     1
 45
0.0
1001
ACAD
1000
AcDbSavedByObjectVersion
1070
     0
  0
VISUALSTYLE
  5
2CC
102
{ACAD_XDICTIONARY
360
661
102
}
102
{ACAD_REACTORS
330
2C2
102
}
330
2C2
100
AcDbVisualStyle
  2
Realistic
 70
     8
 71
     2
 72
     2
 73
     0
 90
        0
 40
-0.6
 41
-30.0
 62
     5
 63
     7
 74
     1
 91
        0
 64
     7
 65
   257
 75
     1
175
     1
 42
1.0
 92
        8
 66
     8
 43
1.0
 76
     1
 77
     6
 78
     2
 67
     7
 79
     5
170
     0
171
     0
290
     0
174
     0
 93
       13
 44
0.0
173
     0
291
     0
 45
0.0
1001
ACAD
1000
AcDbSavedByObjectVersion
1070
     0
  0
VISUALSTYLE
  5
638
102
{ACAD_XDICTIONARY
360
694
102
}
102
{ACAD_REACTORS
330
2C2
102
}
330
2C2
100
AcDbVisualStyle
  2
Shaded
 70
    27
 71
     2
 72
     2
 73
     1
 90
        2
 40
-0.6
 41
30.0
 62
     5
 63
     7
 74
     0
 91
        4
 64
     7
 65
   257
 75
     1
175
     1
 42
1.0
 92
        8
 66
   257
 43
1.0
 76
     1
 77
     6
 78
     2
 67
     8
 79
     3
170
     0
171
     0
290
     0
174
     0
 93
        5
 44
0.0
173
     0
291
     0
 45
0.0
1001
ACAD
1000
AcDbSavedByObjectVersion
1070
     0
  0
VISUALSTYLE
  5
637
102
{ACAD_XDICTIONARY
360
692
102
}
102
{ACAD_REACTORS
330
2C2
102
}
330
2C2
100
AcDbVisualStyle
  2
Shaded with edges
 70
    26
 71
     2
 72
     2
 73
     1
 90
        2
 40
-0.6
 41
30.0
 62
     5
 63
     7
 74
     1
 91
       10
 64
     7
 65
   257
 75
     2
175
     1
 42
1.0
 92
        8
 66
   257
 43
1.0
 76
     1
 77
     6
 78
     2
 67
     7
 79
     3
170
     0
171
     0
290
     0
174
     0
 93
        5
 44
0.0
173
     0
291
     0
 45
0.0
1001
ACAD
1000
AcDbSavedByObjectVersion
1070
     0
  0
VISUALSTYLE
  5
634
102
{ACAD_XDICTIONARY
360
68C
102
}
102
{ACAD_REACTORS
330
2C2
102
}
330
2C2
100
AcDbVisualStyle
  2
Shades of Gray
 70
    23
 71
     2
 72
     2
 73
     3
 90
        0
 40
-0.6
 41
-30.0
 62
     5
 63
     7
 74
     2
 91
        2
 64
     7
 65
     7
 75
     1
175
     1
 42
40.0
 92
        8
 66
     7
 43
1.0
 76
     1
 77
     6
 78
     2
 67
     7
 79
     3
170
     0
171
     0
290
     0
174
     0
 93
        1
 44
0.0
173
     0
291
     0
 45
0.0
1001
ACAD
1000
AcDbSavedByObjectVersion
1070
     0
  0
VISUALSTYLE
  5
635
102
{ACAD_XDICTIONARY
360
68E
102
}
102
{ACAD_REACTORS
330
2C2
102
}
330
2C2
100
AcDbVisualStyle
  2
Sketchy
 70
    24
 71
     1
 72
     2
 73
     2
 90
        0
 40
-0.6
 41
-30.0
 62
     5
 63
     7
 74
     2
 91
        2
 64
     7
 65
     7
 75
     1
175
     1
 42
40.0
 92
       11
 66
     7
 43
1.0
 76
     1
 77
     6
 78
     2
 67
     7
 79
     6
170
     0
171
     0
290
     0
174
     0
 93
        1
 44
0.0
173
     0
291
     0
 45
0.0
1001
ACAD
1000
AcDbSavedByObjectVersion
1070
     0
  0
VISUALSTYLE
  5
2CF
102
{ACAD_XDICTIONARY
360
667
102
}
102
{ACAD_REACTORS
330
2C2
102
}
330
2C2
100
AcDbVisualStyle
  2
Thicken
 70
    13
 71
     2
 72
     2
 73
     0
 90
        0
 40
-0.6
 41
-30.0
 62
     5
 63
     7
 74
     1
 91
        4
 64
     7
 65
   257
 75
     1
175
     1
 42
1.0
 92
       12
 66
     7
 43
1.0
 76
     1
 77
     6
 78
     2
 67
     7
 79
     5
170
     0
171
     0
290
     0
174
     0
 93
        1
 44
0.0
173
     0
291
     1
 45
0.0
1001
ACAD
1000
AcDbSavedByObjectVersion
1070
     0
  0
VISUALSTYLE
  5
632
102
{ACAD_XDICTIONARY
360
688
102
}
102
{ACAD_REACTORS
330
2C2
102
}
330
2C2
100
AcDbVisualStyle
  2
Wireframe
 70
     5
 71
     0
 72
     2
 73
     0
 90
        0
 40
-0.6
 41
-30.0
 62
     5
 63
     7
 74
     1
 91
        4
 64
     7
 65
   257
 75
     1
175
     1
 42
1.0
 92
        0
 66
   257
 43
1.0
 76
     1
 77
     6
 78
     2
 67
     7
 79
     3
170
     0
171
     0
290
     0
174
     0
 93
        1
 44
0.0
173
     0
291
     0
 45
0.0
1001
ACAD
1000
AcDbSavedByObjectVersion
1070
     0
  0
VISUALSTYLE
  5
636
102
{ACAD_XDICTIONARY
360
690
102
}
102
{ACAD_REACTORS
330
2C2
102
}
330
2C2
100
AcDbVisualStyle
  2
X-Ray
 70
    25
 71
     2
 72
     2
 73
     1
 90
        1
 40
0.5
 41
-30.0
 62
     5
 63
     7
 74
     1
 91
        0
 64
     7
 65
   257
 75
     1
175
     1
 42
1.0
 92
        8
 66
     7
 43
1.0
 76
     1
 77
     6
 78
     2
 67
     7
 79
     3
170
     0
171
     0
290
     0
174
     0
 93
       13
 44
0.0
173
     0
291
     0
 45
0.0
1001
ACAD
1000
AcDbSavedByObjectVersion
1070
     0
  0
DICTIONARYVAR
  5
62D
102
{ACAD_REACTORS
330
2A7
102
}
330
2A7
100
DictionaryVariables
280
     0
  1
1:1
  0
DICTIONARYVAR
  5
62B
102
{ACAD_REACTORS
330
2A7
102
}
330
2A7
100
DictionaryVariables
280
     0
  1
STANDARD
  0
DICTIONARYVAR
  5
62A
102
{ACAD_REACTORS
330
2A7
102
}
330
2A7
100
DictionaryVariables
280
     0
  1
STANDARD
  0
DICTIONARYVAR
  5
2A8
330
2A7
100
DictionaryVariables
280
     0
  1
2
  0
DICTIONARYVAR
  5
62C
102
{ACAD_REACTORS
330
2A7
102
}
330
2A7
100
DictionaryVariables
280
     0
  1
0
  0
DICTIONARYVAR
  5
62F
102
{ACAD_REACTORS
330
2A7
102
}
330
2A7
100
DictionaryVariables
280
     0
  1
0
  0
DICTIONARYVAR
  5
62E
102
{ACAD_REACTORS
330
2A7
102
}
330
2A7
100
DictionaryVariables
280
     0
  1
127
  0
DICTIONARYVAR
  5
642
102
{ACAD_REACTORS
330
2A7
102
}
330
2A7
100
DictionaryVariables
280
     0
  1
2
  0
XRECORD
  5
593
102
{ACAD_REACTORS
330
591
102
}
330
591
100
AcDbXrecord
280
     1
330
8A
330
92
330
9A
330
A2
330
1F2
330
3C4
330
3C5
330
3D0
330
3D1
330
3D9
330
3DA
330
3E4
330
3E5
330
3EF
330
3F0
330
3F8
330
3F9
330
403
330
404
330
40C
330
40D
330
414
330
415
330
41C
330
41D
330
425
330
426
330
42E
330
42F
330
439
330
43A
330
442
330
443
330
44B
330
44C
330
454
330
455
  0
XRECORD
  5
460
102
{ACAD_REACTORS
330
45F
102
}
330
45F
100
AcDbXrecord
280
     1
 91
        1
  0
ACAD_PROXY_OBJECT
  5
45D
102
{ACAD_REACTORS
330
45C
102
}
330
45C
100
AcDbProxyObject
 90
      499
 91
      529
 95
   983063
 70
     0
 93
       88
310
4050844454641554C5400E00
 94
        0
1001
ACAD
1000
AcRTDxfName
1000
ACDBQSCATEGORY
  0
XRECORD
  5
5E3
102
{ACAD_REACTORS
330
5E1
102
}
330
5E1
100
AcDbXrecord
280
     1
  9
X4564
  0
XRECORD
  5
5E2
102
{ACAD_REACTORS
330
5E1
102
}
330
5E1
100
AcDbXrecord
280
     1
  2
TOP
  3
P-0000
280
     1
310
6465736372697A696F6E6500544F5000444154410032382F31322F313000554D004E520052455600300044495345474E41544F5245004D2E43617075616E6F005343414C4100313A310000
 10
0.0
 20
0.0
 30
0.0
  0
XRECORD
  5
467
102
{ACAD_REACTORS
330
466
102
}
330
466
100
AcDbXrecord
280
     1
 90
      202
 91
      144
  0
DICTIONARY
  5
64A
330
21
100
AcDbDictionary
280
     1
281
     1
  3
ACAD_XREC_ROUNDTRIP
360
64B
  0
DICTIONARY
  5
648
330
20
100
AcDbDictionary
280
     1
281
     1
  3
ACAD_XREC_ROUNDTRIP
360
649
  0
DICTIONARY
  5
2B3
330
2B2
100
AcDbDictionary
280
     1
281
     1
  3
ACAD_XREC_ROUNDTRIP
360
64D
  3
BUMPTILE
360
2B5
  3
DIFFUSETILE
360
2B4
  3
OPACITYTILE
360
2B8
  3
REFLECTIONTILE
360
2B7
  3
REFRACTIONTILE
360
2B9
  3
SPECULARTILE
360
2B6
  0
DICTIONARY
  5
2AB
330
2AA
100
AcDbDictionary
280
     1
281
     1
  3
ACAD_XREC_ROUNDTRIP
360
64C
  3
BUMPTILE
360
2AD
  3
DIFFUSETILE
360
2AC
  3
OPACITYTILE
360
2B0
  3
REFLECTIONTILE
360
2AF
  3
REFRACTIONTILE
360
2B1
  3
SPECULARTILE
360
2AE
  0
DICTIONARY
  5
2BB
330
2BA
100
AcDbDictionary
280
     1
281
     1
  3
ACAD_XREC_ROUNDTRIP
360
64E
  3
BUMPTILE
360
2BD
  3
DIFFUSETILE
360
2BC
  3
OPACITYTILE
360
2C0
  3
REFLECTIONTILE
360
2BF
  3
REFRACTIONTILE
360
2C1
  3
SPECULARTILE
360
2BE
  0
DICTIONARY
  5
67C
330
47B
100
AcDbDictionary
280
     1
281
     1
  3
ACAD_XREC_ROUNDTRIP
360
67D
  0
DICTIONARY
  5
67E
330
47C
100
AcDbDictionary
280
     1
281
     1
  3
ACAD_XREC_ROUNDTRIP
360
67F
  0
DICTIONARY
  5
680
330
47D
100
AcDbDictionary
280
     1
281
     1
  3
ACAD_XREC_ROUNDTRIP
360
681
  0
DICTIONARY
  5
682
330
47E
100
AcDbDictionary
280
     1
281
     1
  3
ACAD_XREC_ROUNDTRIP
360
683
  0
DICTIONARY
  5
684
330
47F
100
AcDbDictionary
280
     1
281
     1
  3
ACAD_XREC_ROUNDTRIP
360
685
  0
DICTIONARY
  5
481
330
480
100
AcDbDictionary
280
     1
281
     1
  3
ACAD_ROUNDTRIP_2008_TABLESTYLE_CELLSTYLEMAP
360
644
  3
ACAD_XREC_ROUNDTRIP
360
686
  0
DICTIONARY
  5
483
330
482
100
AcDbDictionary
280
     1
281
     1
  3
ACAD_ROUNDTRIP_2008_TABLESTYLE_CELLSTYLEMAP
360
645
  3
ACAD_XREC_ROUNDTRIP
360
687
  0
DICTIONARY
  5
5E4
330
320
100
AcDbDictionary
280
     1
281
     1
  3
ACAD_ROUNDTRIP_2008_TABLESTYLE_CELLSTYLEMAP
360
643
  3
ACAD_XREC_ROUNDTRIP
360
675
  0
DICTIONARY
  5
659
330
2C8
100
AcDbDictionary
280
     1
281
     1
  3
ACAD_XREC_ROUNDTRIP
360
65A
  0
DICTIONARY
  5
65D
330
2CA
100
AcDbDictionary
280
     1
281
     1
  3
ACAD_XREC_ROUNDTRIP
360
65E
  0
DICTIONARY
  5
65B
330
2C9
100
AcDbDictionary
280
     1
281
     1
  3
ACAD_XREC_ROUNDTRIP
360
65C
  0
DICTIONARY
  5
657
330
2C7
100
AcDbDictionary
280
     1
281
     1
  3
ACAD_XREC_ROUNDTRIP
360
658
  0
DICTIONARY
  5
665
330
2CE
100
AcDbDictionary
280
     1
281
     1
  3
ACAD_XREC_ROUNDTRIP
360
666
  0
DICTIONARY
  5
66D
330
2D2
100
AcDbDictionary
280
     1
281
     1
  3
ACAD_XREC_ROUNDTRIP
360
66E
  0
DICTIONARY
  5
65F
330
2CB
100
AcDbDictionary
280
     1
281
     1
  3
ACAD_XREC_ROUNDTRIP
360
660
  0
DICTIONARY
  5
663
330
2CD
100
AcDbDictionary
280
     1
281
     1
  3
ACAD_XREC_ROUNDTRIP
360
664
  0
DICTIONARY
  5
673
330
2D5
100
AcDbDictionary
280
     1
281
     1
  3
ACAD_XREC_ROUNDTRIP
360
674
  0
DICTIONARY
  5
66B
330
2D1
100
AcDbDictionary
280
     1
281
     1
  3
ACAD_XREC_ROUNDTRIP
360
66C
  0
DICTIONARY
  5
64F
330
2C3
100
AcDbDictionary
280
     1
281
     1
  3
ACAD_XREC_ROUNDTRIP
360
650
  0
DICTIONARY
  5
651
330
2C4
100
AcDbDictionary
280
     1
281
     1
  3
ACAD_XREC_ROUNDTRIP
360
652
  0
DICTIONARY
  5
653
330
2C5
100
AcDbDictionary
280
     1
281
     1
  3
ACAD_XREC_ROUNDTRIP
360
654
  0
DICTIONARY
  5
655
330
2C6
100
AcDbDictionary
280
     1
281
     1
  3
ACAD_XREC_ROUNDTRIP
360
656
  0
DICTIONARY
  5
68A
330
633
100
AcDbDictionary
280
     1
281
     1
  3
ACAD_XREC_ROUNDTRIP
360
68B
  0
DICTIONARY
  5
66F
330
2D3
100
AcDbDictionary
280
     1
281
     1
  3
ACAD_XREC_ROUNDTRIP
360
670
  0
DICTIONARY
  5
669
330
2D0
100
AcDbDictionary
280
     1
281
     1
  3
ACAD_XREC_ROUNDTRIP
360
66A
  0
DICTIONARY
  5
671
330
2D4
100
AcDbDictionary
280
     1
281
     1
  3
ACAD_XREC_ROUNDTRIP
360
672
  0
DICTIONARY
  5
661
330
2CC
100
AcDbDictionary
280
     1
281
     1
  3
ACAD_XREC_ROUNDTRIP
360
662
  0
DICTIONARY
  5
694
330
638
100
AcDbDictionary
280
     1
281
     1
  3
ACAD_XREC_ROUNDTRIP
360
695
  0
DICTIONARY
  5
692
330
637
100
AcDbDictionary
280
     1
281
     1
  3
ACAD_XREC_ROUNDTRIP
360
693
  0
DICTIONARY
  5
68C
330
634
100
AcDbDictionary
280
     1
281
     1
  3
ACAD_XREC_ROUNDTRIP
360
68D
  0
DICTIONARY
  5
68E
330
635
100
AcDbDictionary
280
     1
281
     1
  3
ACAD_XREC_ROUNDTRIP
360
68F
  0
DICTIONARY
  5
667
330
2CF
100
AcDbDictionary
280
     1
281
     1
  3
ACAD_XREC_ROUNDTRIP
360
668
  0
DICTIONARY
  5
688
330
632
100
AcDbDictionary
280
     1
281
     1
  3
ACAD_XREC_ROUNDTRIP
360
689
  0
DICTIONARY
  5
690
330
636
100
AcDbDictionary
280
     1
281
     1
  3
ACAD_XREC_ROUNDTRIP
360
691
  0
XRECORD
  5
64B
102
{ACAD_REACTORS
330
64A
102
}
330
64A
100
AcDbXrecord
280
     1
102
SHADEPLOT
 70
     0
102
SHADEPLOTRESLEVEL
 70
     2
102
SHADEPLOTCUSTOMDPI
 70
   300
  0
XRECORD
  5
649
102
{ACAD_REACTORS
330
648
102
}
330
648
100
AcDbXrecord
280
     1
102
SHADEPLOT
 70
     0
102
SHADEPLOTRESLEVEL
 70
     2
102
SHADEPLOTCUSTOMDPI
 70
   300
  0
XRECORD
  5
64D
102
{ACAD_REACTORS
330
2B3
102
}
330
2B3
100
AcDbXrecord
280
     1
102
MATERIAL
148
0.0
149
0.0
149
0.0
 93
        0
 94
      127
282
     0
 72
     0
 77
     0
171
     0
175
     0
179
     0
273
     0
  0
XRECORD
  5
2B5
102
{ACAD_REACTORS
330
2B3
102
}
330
2B3
100
AcDbXrecord
280
     1
270
     1
271
     1
  0
XRECORD
  5
2B4
102
{ACAD_REACTORS
330
2B3
102
}
330
2B3
100
AcDbXrecord
280
     1
270
     1
271
     1
  0
XRECORD
  5
2B8
102
{ACAD_REACTORS
330
2B3
102
}
330
2B3
100
AcDbXrecord
280
     1
270
     1
271
     1
  0
XRECORD
  5
2B7
102
{ACAD_REACTORS
330
2B3
102
}
330
2B3
100
AcDbXrecord
280
     1
270
     1
271
     1
  0
XRECORD
  5
2B9
102
{ACAD_REACTORS
330
2B3
102
}
330
2B3
100
AcDbXrecord
280
     1
270
     1
271
     1
  0
XRECORD
  5
2B6
102
{ACAD_REACTORS
330
2B3
102
}
330
2B3
100
AcDbXrecord
280
     1
270
     1
271
     1
  0
XRECORD
  5
64C
102
{ACAD_REACTORS
330
2AB
102
}
330
2AB
100
AcDbXrecord
280
     1
102
MATERIAL
148
0.0
149
0.0
149
0.0
 93
        0
 94
      127
282
     0
 72
     0
 77
     0
171
     0
175
     0
179
     0
273
     0
  0
XRECORD
  5
2AD
102
{ACAD_REACTORS
330
2AB
102
}
330
2AB
100
AcDbXrecord
280
     1
270
     1
271
     1
  0
XRECORD
  5
2AC
102
{ACAD_REACTORS
330
2AB
102
}
330
2AB
100
AcDbXrecord
280
     1
270
     1
271
     1
  0
XRECORD
  5
2B0
102
{ACAD_REACTORS
330
2AB
102
}
330
2AB
100
AcDbXrecord
280
     1
270
     1
271
     1
  0
XRECORD
  5
2AF
102
{ACAD_REACTORS
330
2AB
102
}
330
2AB
100
AcDbXrecord
280
     1
270
     1
271
     1
  0
XRECORD
  5
2B1
102
{ACAD_REACTORS
330
2AB
102
}
330
2AB
100
AcDbXrecord
280
     1
270
     1
271
     1
  0
XRECORD
  5
2AE
102
{ACAD_REACTORS
330
2AB
102
}
330
2AB
100
AcDbXrecord
280
     1
270
     1
271
     1
  0
XRECORD
  5
64E
102
{ACAD_REACTORS
330
2BB
102
}
330
2BB
100
AcDbXrecord
280
     1
102
MATERIAL
148
0.0
149
0.0
149
0.0
 93
        0
 94
      127
282
     0
 72
     0
 77
     0
171
     0
175
     0
179
     0
273
     0
  0
XRECORD
  5
2BD
102
{ACAD_REACTORS
330
2BB
102
}
330
2BB
100
AcDbXrecord
280
     1
270
     1
271
     1
  0
XRECORD
  5
2BC
102
{ACAD_REACTORS
330
2BB
102
}
330
2BB
100
AcDbXrecord
280
     1
270
     1
271
     1
  0
XRECORD
  5
2C0
102
{ACAD_REACTORS
330
2BB
102
}
330
2BB
100
AcDbXrecord
280
     1
270
     1
271
     1
  0
XRECORD
  5
2BF
102
{ACAD_REACTORS
330
2BB
102
}
330
2BB
100
AcDbXrecord
280
     1
270
     1
271
     1
  0
XRECORD
  5
2C1
102
{ACAD_REACTORS
330
2BB
102
}
330
2BB
100
AcDbXrecord
280
     1
270
     1
271
     1
  0
XRECORD
  5
2BE
102
{ACAD_REACTORS
330
2BB
102
}
330
2BB
100
AcDbXrecord
280
     1
270
     1
271
     1
  0
XRECORD
  5
67D
102
{ACAD_REACTORS
330
67C
102
}
330
67C
100
AcDbXrecord
280
     1
102
SHADEPLOT
 70
     0
102
SHADEPLOTRESLEVEL
 70
     2
102
SHADEPLOTCUSTOMDPI
 70
   300
  0
XRECORD
  5
67F
102
{ACAD_REACTORS
330
67E
102
}
330
67E
100
AcDbXrecord
280
     1
102
SHADEPLOT
 70
     0
102
SHADEPLOTRESLEVEL
 70
     2
102
SHADEPLOTCUSTOMDPI
 70
   300
  0
XRECORD
  5
681
102
{ACAD_REACTORS
330
680
102
}
330
680
100
AcDbXrecord
280
     1
102
SHADEPLOT
 70
     0
102
SHADEPLOTRESLEVEL
 70
     2
102
SHADEPLOTCUSTOMDPI
 70
   300
  0
XRECORD
  5
683
102
{ACAD_REACTORS
330
682
102
}
330
682
100
AcDbXrecord
280
     1
102
SHADEPLOT
 70
     0
102
SHADEPLOTRESLEVEL
 70
     2
102
SHADEPLOTCUSTOMDPI
 70
   300
  0
XRECORD
  5
685
102
{ACAD_REACTORS
330
684
102
}
330
684
100
AcDbXrecord
280
     1
102
SHADEPLOT
 70
     0
102
SHADEPLOTRESLEVEL
 70
     2
102
SHADEPLOTCUSTOMDPI
 70
   300
  0
CELLSTYLEMAP
  5
644
102
{ACAD_REACTORS
330
481
102
}
330
481
100
AcDbCellStyleMap
 90
        3
300
CELLSTYLE
  1
TABLEFORMAT_BEGIN
 90
        5
170
     1
 91
        0
 92
    32768
 62
   257
 93
        1
300
CONTENTFORMAT
  1
CONTENTFORMAT_BEGIN
 90
        0
 91
        0
 92
      512
 93
        0
300

 40
0.0
140
1.0
 94
        5
 62
     1
340
46D
144
6.0
309
CONTENTFORMAT_END
171
     1
301
MARGIN
  1
CELLMARGIN_BEGIN
 40
1.5
 40
1.5
 40
1.5
 40
1.5
 40
0.18
 40
0.18
309
CELLMARGIN_END
 94
        6
 95
        1
302
GRIDFORMAT
  1
GRIDFORMAT_BEGIN
 90
        0
 91
        1
 62
     0
 92
       -2
340
0
 93
        0
 40
0.045
309
GRIDFORMAT_END
 95
        2
302
GRIDFORMAT
  1
GRIDFORMAT_BEGIN
 90
        0
 91
        1
 62
     0
 92
       -2
340
0
 93
        0
 40
0.045
309
GRIDFORMAT_END
 95
        4
302
GRIDFORMAT
  1
GRIDFORMAT_BEGIN
 90
        0
 91
        1
 62
     0
 92
       -2
340
0
 93
        0
 40
0.045
309
GRIDFORMAT_END
 95
        8
302
GRIDFORMAT
  1
GRIDFORMAT_BEGIN
 90
        0
 91
        1
 62
     0
 92
       -2
340
0
 93
        0
 40
0.045
309
GRIDFORMAT_END
 95
       16
302
GRIDFORMAT
  1
GRIDFORMAT_BEGIN
 90
        0
 91
        1
 62
     0
 92
       -2
340
0
 93
        0
 40
0.045
309
GRIDFORMAT_END
 95
       32
302
GRIDFORMAT
  1
GRIDFORMAT_BEGIN
 90
        0
 91
        1
 62
     0
 92
       -2
340
0
 93
        0
 40
0.045
309
GRIDFORMAT_END
309
TABLEFORMAT_END
  1
CELLSTYLE_BEGIN
 90
        1
 91
        1
300
_TITLE
309
CELLSTYLE_END
300
CELLSTYLE
  1
TABLEFORMAT_BEGIN
 90
        5
170
     1
 91
        0
 92
        0
 62
   257
 93
        1
300
CONTENTFORMAT
  1
CONTENTFORMAT_BEGIN
 90
        0
 91
        0
 92
      512
 93
        0
300

 40
0.0
140
1.0
 94
        5
 62
     3
340
46D
144
3.5
309
CONTENTFORMAT_END
171
     1
301
MARGIN
  1
CELLMARGIN_BEGIN
 40
1.5
 40
1.5
 40
1.5
 40
1.5
 40
0.18
 40
0.18
309
CELLMARGIN_END
 94
        6
 95
        1
302
GRIDFORMAT
  1
GRIDFORMAT_BEGIN
 90
        0
 91
        1
 62
     0
 92
       -2
340
0
 93
        0
 40
0.045
309
GRIDFORMAT_END
 95
        2
302
GRIDFORMAT
  1
GRIDFORMAT_BEGIN
 90
        0
 91
        1
 62
     0
 92
       -2
340
0
 93
        0
 40
0.045
309
GRIDFORMAT_END
 95
        4
302
GRIDFORMAT
  1
GRIDFORMAT_BEGIN
 90
        0
 91
        1
 62
     0
 92
       -2
340
0
 93
        0
 40
0.045
309
GRIDFORMAT_END
 95
        8
302
GRIDFORMAT
  1
GRIDFORMAT_BEGIN
 90
        0
 91
        1
 62
     0
 92
       -2
340
0
 93
        0
 40
0.045
309
GRIDFORMAT_END
 95
       16
302
GRIDFORMAT
  1
GRIDFORMAT_BEGIN
 90
        0
 91
        1
 62
     0
 92
       -2
340
0
 93
        0
 40
0.045
309
GRIDFORMAT_END
 95
       32
302
GRIDFORMAT
  1
GRIDFORMAT_BEGIN
 90
        0
 91
        1
 62
     0
 92
       -2
340
0
 93
        0
 40
0.045
309
GRIDFORMAT_END
309
TABLEFORMAT_END
  1
CELLSTYLE_BEGIN
 90
        2
 91
        1
300
_HEADER
309
CELLSTYLE_END
300
CELLSTYLE
  1
TABLEFORMAT_BEGIN
 90
        5
170
     1
 91
        0
 92
        0
 62
   257
 93
        1
300
CONTENTFORMAT
  1
CONTENTFORMAT_BEGIN
 90
        0
 91
        0
 92
      512
 93
        0
300

 40
0.0
140
1.0
 94
        5
 62
     7
340
46D
144
3.0
309
CONTENTFORMAT_END
171
     1
301
MARGIN
  1
CELLMARGIN_BEGIN
 40
1.5
 40
1.5
 40
1.5
 40
1.5
 40
0.18
 40
0.18
309
CELLMARGIN_END
 94
        6
 95
        1
302
GRIDFORMAT
  1
GRIDFORMAT_BEGIN
 90
        0
 91
        1
 62
     0
 92
       -2
340
0
 93
        0
 40
0.045
309
GRIDFORMAT_END
 95
        2
302
GRIDFORMAT
  1
GRIDFORMAT_BEGIN
 90
        0
 91
        1
 62
     0
 92
       -2
340
0
 93
        0
 40
0.045
309
GRIDFORMAT_END
 95
        4
302
GRIDFORMAT
  1
GRIDFORMAT_BEGIN
 90
        0
 91
        1
 62
     0
 92
       -2
340
0
 93
        0
 40
0.045
309
GRIDFORMAT_END
 95
        8
302
GRIDFORMAT
  1
GRIDFORMAT_BEGIN
 90
        0
 91
        1
 62
     0
 92
       -2
340
0
 93
        0
 40
0.045
309
GRIDFORMAT_END
 95
       16
302
GRIDFORMAT
  1
GRIDFORMAT_BEGIN
 90
        0
 91
        1
 62
     0
 92
       -2
340
0
 93
        0
 40
0.045
309
GRIDFORMAT_END
 95
       32
302
GRIDFORMAT
  1
GRIDFORMAT_BEGIN
 90
        0
 91
        1
 62
     0
 92
       -2
340
0
 93
        0
 40
0.045
309
GRIDFORMAT_END
309
TABLEFORMAT_END
  1
CELLSTYLE_BEGIN
 90
        3
 91
        2
300
_DATA
309
CELLSTYLE_END
  0
XRECORD
  5
686
102
{ACAD_REACTORS
330
481
102
}
330
481
100
AcDbXrecord
280
     1
102
ACAD_ROUNDTRIP_PRE2007_TABLESTYLE
 90
      512
 91
        0
  1

 92
      512
 93
        0
  2

 94
      512
 95
        0
  3

  0
CELLSTYLEMAP
  5
645
102
{ACAD_REACTORS
330
483
102
}
330
483
100
AcDbCellStyleMap
 90
        3
300
CELLSTYLE
  1
TABLEFORMAT_BEGIN
 90
        5
170
     1
 91
        0
 92
    32768
 62
   257
 93
        1
300
CONTENTFORMAT
  1
CONTENTFORMAT_BEGIN
 90
        0
 91
        0
 92
      512
 93
        0
300

 40
0.0
140
1.0
 94
        5
 62
     1
340
46D
144
6.0
309
CONTENTFORMAT_END
171
     1
301
MARGIN
  1
CELLMARGIN_BEGIN
 40
1.5
 40
1.5
 40
1.5
 40
1.5
 40
0.18
 40
0.18
309
CELLMARGIN_END
 94
        6
 95
        1
302
GRIDFORMAT
  1
GRIDFORMAT_BEGIN
 90
        0
 91
        1
 62
     0
 92
       -2
340
0
 93
        0
 40
0.045
309
GRIDFORMAT_END
 95
        2
302
GRIDFORMAT
  1
GRIDFORMAT_BEGIN
 90
        0
 91
        1
 62
     0
 92
       -2
340
0
 93
        0
 40
0.045
309
GRIDFORMAT_END
 95
        4
302
GRIDFORMAT
  1
GRIDFORMAT_BEGIN
 90
        0
 91
        1
 62
     0
 92
       -2
340
0
 93
        0
 40
0.045
309
GRIDFORMAT_END
 95
        8
302
GRIDFORMAT
  1
GRIDFORMAT_BEGIN
 90
        0
 91
        1
 62
     0
 92
       -2
340
0
 93
        0
 40
0.045
309
GRIDFORMAT_END
 95
       16
302
GRIDFORMAT
  1
GRIDFORMAT_BEGIN
 90
        0
 91
        1
 62
     0
 92
       -2
340
0
 93
        0
 40
0.045
309
GRIDFORMAT_END
 95
       32
302
GRIDFORMAT
  1
GRIDFORMAT_BEGIN
 90
        0
 91
        1
 62
     0
 92
       -2
340
0
 93
        0
 40
0.045
309
GRIDFORMAT_END
309
TABLEFORMAT_END
  1
CELLSTYLE_BEGIN
 90
        1
 91
        1
300
_TITLE
309
CELLSTYLE_END
300
CELLSTYLE
  1
TABLEFORMAT_BEGIN
 90
        5
170
     1
 91
        0
 92
        0
 62
   257
 93
        1
300
CONTENTFORMAT
  1
CONTENTFORMAT_BEGIN
 90
        0
 91
        0
 92
      512
 93
        0
300

 40
0.0
140
1.0
 94
        5
 62
     3
340
46D
144
5.0
309
CONTENTFORMAT_END
171
     1
301
MARGIN
  1
CELLMARGIN_BEGIN
 40
1.5
 40
1.5
 40
1.5
 40
1.5
 40
0.18
 40
0.18
309
CELLMARGIN_END
 94
        6
 95
        1
302
GRIDFORMAT
  1
GRIDFORMAT_BEGIN
 90
        0
 91
        1
 62
     0
 92
       -2
340
0
 93
        0
 40
0.045
309
GRIDFORMAT_END
 95
        2
302
GRIDFORMAT
  1
GRIDFORMAT_BEGIN
 90
        0
 91
        1
 62
     0
 92
       -2
340
0
 93
        0
 40
0.045
309
GRIDFORMAT_END
 95
        4
302
GRIDFORMAT
  1
GRIDFORMAT_BEGIN
 90
        0
 91
        1
 62
     0
 92
       -2
340
0
 93
        0
 40
0.045
309
GRIDFORMAT_END
 95
        8
302
GRIDFORMAT
  1
GRIDFORMAT_BEGIN
 90
        0
 91
        1
 62
     0
 92
       -2
340
0
 93
        0
 40
0.045
309
GRIDFORMAT_END
 95
       16
302
GRIDFORMAT
  1
GRIDFORMAT_BEGIN
 90
        0
 91
        1
 62
     0
 92
       -2
340
0
 93
        0
 40
0.045
309
GRIDFORMAT_END
 95
       32
302
GRIDFORMAT
  1
GRIDFORMAT_BEGIN
 90
        0
 91
        1
 62
     0
 92
       -2
340
0
 93
        0
 40
0.045
309
GRIDFORMAT_END
309
TABLEFORMAT_END
  1
CELLSTYLE_BEGIN
 90
        2
 91
        1
300
_HEADER
309
CELLSTYLE_END
300
CELLSTYLE
  1
TABLEFORMAT_BEGIN
 90
        5
170
     1
 91
        0
 92
        0
 62
   257
 93
        1
300
CONTENTFORMAT
  1
CONTENTFORMAT_BEGIN
 90
        0
 91
        0
 92
      512
 93
        0
300

 40
0.0
140
1.0
 94
        5
 62
     7
340
46D
144
4.5
309
CONTENTFORMAT_END
171
     1
301
MARGIN
  1
CELLMARGIN_BEGIN
 40
1.5
 40
1.5
 40
1.5
 40
1.5
 40
0.18
 40
0.18
309
CELLMARGIN_END
 94
        6
 95
        1
302
GRIDFORMAT
  1
GRIDFORMAT_BEGIN
 90
        0
 91
        1
 62
     0
 92
       -2
340
0
 93
        0
 40
0.045
309
GRIDFORMAT_END
 95
        2
302
GRIDFORMAT
  1
GRIDFORMAT_BEGIN
 90
        0
 91
        1
 62
     0
 92
       -2
340
0
 93
        0
 40
0.045
309
GRIDFORMAT_END
 95
        4
302
GRIDFORMAT
  1
GRIDFORMAT_BEGIN
 90
        0
 91
        1
 62
     0
 92
       -2
340
0
 93
        0
 40
0.045
309
GRIDFORMAT_END
 95
        8
302
GRIDFORMAT
  1
GRIDFORMAT_BEGIN
 90
        0
 91
        1
 62
     0
 92
       -2
340
0
 93
        0
 40
0.045
309
GRIDFORMAT_END
 95
       16
302
GRIDFORMAT
  1
GRIDFORMAT_BEGIN
 90
        0
 91
        1
 62
     0
 92
       -2
340
0
 93
        0
 40
0.045
309
GRIDFORMAT_END
 95
       32
302
GRIDFORMAT
  1
GRIDFORMAT_BEGIN
 90
        0
 91
        1
 62
     0
 92
       -2
340
0
 93
        0
 40
0.045
309
GRIDFORMAT_END
309
TABLEFORMAT_END
  1
CELLSTYLE_BEGIN
 90
        3
 91
        2
300
_DATA
309
CELLSTYLE_END
  0
XRECORD
  5
687
102
{ACAD_REACTORS
330
483
102
}
330
483
100
AcDbXrecord
280
     1
102
ACAD_ROUNDTRIP_PRE2007_TABLESTYLE
 90
      512
 91
        0
  1

 92
      512
 93
        0
  2

 94
      512
 95
        0
  3

  0
CELLSTYLEMAP
  5
643
102
{ACAD_REACTORS
330
5E4
102
}
330
5E4
100
AcDbCellStyleMap
 90
        3
300
CELLSTYLE
  1
TABLEFORMAT_BEGIN
 90
        5
170
     1
 91
        0
 92
    32768
 62
   257
 93
        1
300
CONTENTFORMAT
  1
CONTENTFORMAT_BEGIN
 90
        0
 91
        0
 92
      512
 93
        0
300

 40
0.0
140
1.0
 94
        5
 62
     0
340
17
144
0.25
309
CONTENTFORMAT_END
171
     0
 94
        0
309
TABLEFORMAT_END
  1
CELLSTYLE_BEGIN
 90
        1
 91
        1
300
_TITLE
309
CELLSTYLE_END
300
CELLSTYLE
  1
TABLEFORMAT_BEGIN
 90
        5
170
     1
 91
        0
 92
        0
 62
   257
 93
        1
300
CONTENTFORMAT
  1
CONTENTFORMAT_BEGIN
 90
        0
 91
        0
 92
      512
 93
        0
300

 40
0.0
140
1.0
 94
        5
 62
     0
340
17
144
0.18
309
CONTENTFORMAT_END
171
     0
 94
        0
309
TABLEFORMAT_END
  1
CELLSTYLE_BEGIN
 90
        2
 91
        1
300
_HEADER
309
CELLSTYLE_END
300
CELLSTYLE
  1
TABLEFORMAT_BEGIN
 90
        5
170
     1
 91
        0
 92
        0
 62
   257
 93
        1
300
CONTENTFORMAT
  1
CONTENTFORMAT_BEGIN
 90
        0
 91
        0
 92
      512
 93
        0
300

 40
0.0
140
1.0
 94
        2
 62
     0
340
17
144
0.18
309
CONTENTFORMAT_END
171
     0
 94
        0
309
TABLEFORMAT_END
  1
CELLSTYLE_BEGIN
 90
        3
 91
        2
300
_DATA
309
CELLSTYLE_END
  0
XRECORD
  5
675
102
{ACAD_REACTORS
330
5E4
102
}
330
5E4
100
AcDbXrecord
280
     1
102
ACAD_ROUNDTRIP_PRE2007_TABLESTYLE
 90
      512
 91
        0
  1

 92
      512
 93
        0
  2

 94
      512
 95
        0
  3

  0
XRECORD
  5
65A
102
{ACAD_REACTORS
330
659
102
}
330
659
100
AcDbXrecord
280
     1
102
RTVSPropertyOp0
 70
     1
102
RTVSPropertyOp1
 70
     1
102
RTVSPropertyOp2
 70
     1
102
RTVSPropertyOp3
 70
     1
102
RTVSPropertyOp4
 70
     1
102
RTVSPropertyOp5
 70
     1
102
RTVSPropertyOp6
 70
     1
102
RTVSPropertyOp7
 70
     1
102
RTVSPropertyOp8
 70
     1
102
RTVSPropertyOp9
 70
     1
102
RTVSPropertyOp10
 70
     1
102
RTVSPropertyOp11
 70
     1
102
RTVSPropertyOp12
 70
     1
102
RTVSPropertyOp13
 70
     1
102
RTVSPropertyOp14
 70
     1
102
RTVSPropertyOp15
 70
     1
102
RTVSPropertyOp16
 70
     1
102
RTVSPropertyOp17
 70
     1
102
RTVSPropertyOp18
 70
     1
102
RTVSPropertyOp19
 70
     1
102
RTVSPropertyOp20
 70
     1
102
RTVSPropertyOp21
 70
     1
102
RTVSPropertyOp22
 70
     1
102
RTVSPropertyOp23
 70
     1
102
RTVSPropertyOp24
 70
     1
102
RTVSPropertyOp25
 70
     1
102
RTVSPropertyOp26
 70
     1
102
RTVSPropertyOp27
 70
     1
102
RTVSPropertyOp28
 70
     1
102
RTVSPropertyOp29
 70
     1
102
RTVSPropertyOp30
 70
     1
102
RTVSPropertyOp31
 70
     1
102
RTVSPropertyOp32
 70
     1
  0
XRECORD
  5
65E
102
{ACAD_REACTORS
330
65D
102
}
330
65D
100
AcDbXrecord
280
     1
102
RTVSPropertyOp0
 70
     1
102
RTVSPropertyOp1
 70
     1
102
RTVSPropertyOp2
 70
     1
102
RTVSPropertyOp3
 70
     1
102
RTVSPropertyOp4
 70
     1
102
RTVSPropertyOp5
 70
     1
102
RTVSPropertyOp6
 70
     1
102
RTVSPropertyOp7
 70
     1
102
RTVSPropertyOp8
 70
     1
102
RTVSPropertyOp9
 70
     1
102
RTVSPropertyOp10
 70
     1
102
RTVSPropertyOp11
 70
     1
102
RTVSPropertyOp12
 70
     1
102
RTVSPropertyOp13
 70
     1
102
RTVSPropertyOp14
 70
     1
102
RTVSPropertyOp15
 70
     1
102
RTVSPropertyOp16
 70
     1
102
RTVSPropertyOp17
 70
     1
102
RTVSPropertyOp18
 70
     1
102
RTVSPropertyOp19
 70
     1
102
RTVSPropertyOp20
 70
     1
102
RTVSPropertyOp21
 70
     1
102
RTVSPropertyOp22
 70
     1
102
RTVSPropertyOp23
 70
     1
102
RTVSPropertyOp24
 70
     1
102
RTVSPropertyOp25
 70
     1
102
RTVSPropertyOp26
 70
     1
102
RTVSPropertyOp27
 70
     1
102
RTVSPropertyOp28
 70
     1
102
RTVSPropertyOp29
 70
     1
102
RTVSPropertyOp30
 70
     1
102
RTVSPropertyOp31
 70
     1
102
RTVSPropertyOp32
 70
     1
  0
XRECORD
  5
65C
102
{ACAD_REACTORS
330
65B
102
}
330
65B
100
AcDbXrecord
280
     1
102
RTVSPropertyOp0
 70
     1
102
RTVSPropertyOp1
 70
     1
102
RTVSPropertyOp2
 70
     1
102
RTVSPropertyOp3
 70
     1
102
RTVSPropertyOp4
 70
     1
102
RTVSPropertyOp5
 70
     1
102
RTVSPropertyOp6
 70
     1
102
RTVSPropertyOp7
 70
     1
102
RTVSPropertyOp8
 70
     1
102
RTVSPropertyOp9
 70
     1
102
RTVSPropertyOp10
 70
     1
102
RTVSPropertyOp11
 70
     1
102
RTVSPropertyOp12
 70
     1
102
RTVSPropertyOp13
 70
     1
102
RTVSPropertyOp14
 70
     1
102
RTVSPropertyOp15
 70
     1
102
RTVSPropertyOp16
 70
     1
102
RTVSPropertyOp17
 70
     1
102
RTVSPropertyOp18
 70
     1
102
RTVSPropertyOp19
 70
     1
102
RTVSPropertyOp20
 70
     1
102
RTVSPropertyOp21
 70
     1
102
RTVSPropertyOp22
 70
     1
102
RTVSPropertyOp23
 70
     1
102
RTVSPropertyOp24
 70
     1
102
RTVSPropertyOp25
 70
     1
102
RTVSPropertyOp26
 70
     1
102
RTVSPropertyOp27
 70
     1
102
RTVSPropertyOp28
 70
     1
102
RTVSPropertyOp29
 70
     1
102
RTVSPropertyOp30
 70
     1
102
RTVSPropertyOp31
 70
     1
102
RTVSPropertyOp32
 70
     1
  0
XRECORD
  5
658
102
{ACAD_REACTORS
330
657
102
}
330
657
100
AcDbXrecord
280
     1
102
RTVSPropertyOp0
 70
     1
102
RTVSPropertyOp1
 70
     1
102
RTVSPropertyOp2
 70
     1
102
RTVSPropertyOp3
 70
     1
102
RTVSPropertyOp4
 70
     1
102
RTVSPropertyOp5
 70
     1
102
RTVSPropertyOp6
 70
     1
102
RTVSPropertyOp7
 70
     1
102
RTVSPropertyOp8
 70
     1
102
RTVSPropertyOp9
 70
     1
102
RTVSPropertyOp10
 70
     1
102
RTVSPropertyOp11
 70
     1
102
RTVSPropertyOp12
 70
     1
102
RTVSPropertyOp13
 70
     1
102
RTVSPropertyOp14
 70
     1
102
RTVSPropertyOp15
 70
     1
102
RTVSPropertyOp16
 70
     1
102
RTVSPropertyOp17
 70
     1
102
RTVSPropertyOp18
 70
     1
102
RTVSPropertyOp19
 70
     1
102
RTVSPropertyOp20
 70
     1
102
RTVSPropertyOp21
 70
     1
102
RTVSPropertyOp22
 70
     1
102
RTVSPropertyOp23
 70
     1
102
RTVSPropertyOp24
 70
     1
102
RTVSPropertyOp25
 70
     1
102
RTVSPropertyOp26
 70
     1
102
RTVSPropertyOp27
 70
     1
102
RTVSPropertyOp28
 70
     1
102
RTVSPropertyOp29
 70
     1
102
RTVSPropertyOp30
 70
     1
102
RTVSPropertyOp31
 70
     1
102
RTVSPropertyOp32
 70
     1
  0
XRECORD
  5
666
102
{ACAD_REACTORS
330
665
102
}
330
665
100
AcDbXrecord
280
     1
102
RTVSPropertyOp0
 70
     1
102
RTVSPropertyOp1
 70
     1
102
RTVSPropertyOp2
 70
     1
102
RTVSPropertyOp3
 70
     1
102
RTVSPropertyOp4
 70
     1
102
RTVSPropertyOp5
 70
     1
102
RTVSPropertyOp6
 70
     1
102
RTVSPropertyOp7
 70
     1
102
RTVSPropertyOp8
 70
     1
102
RTVSPropertyOp9
 70
     1
102
RTVSPropertyOp10
 70
     1
102
RTVSPropertyOp11
 70
     1
102
RTVSPropertyOp12
 70
     1
102
RTVSPropertyOp13
 70
     1
102
RTVSPropertyOp14
 70
     1
102
RTVSPropertyOp15
 70
     1
102
RTVSPropertyOp16
 70
     1
102
RTVSPropertyOp17
 70
     1
102
RTVSPropertyOp18
 70
     1
102
RTVSPropertyOp19
 70
     1
102
RTVSPropertyOp20
 70
     1
102
RTVSPropertyOp21
 70
     1
102
RTVSPropertyOp22
 70
     1
102
RTVSPropertyOp23
 70
     1
102
RTVSPropertyOp24
 70
     1
102
RTVSPropertyOp25
 70
     1
102
RTVSPropertyOp26
 70
     1
102
RTVSPropertyOp27
 70
     1
102
RTVSPropertyOp28
 70
     1
102
RTVSPropertyOp29
 70
     1
102
RTVSPropertyOp30
 70
     1
102
RTVSPropertyOp31
 70
     1
102
RTVSPropertyOp32
 70
     1
  0
XRECORD
  5
66E
102
{ACAD_REACTORS
330
66D
102
}
330
66D
100
AcDbXrecord
280
     1
102
RTVSPropertyOp0
 70
     1
102
RTVSPropertyOp1
 70
     1
102
RTVSPropertyOp2
 70
     1
102
RTVSPropertyOp3
 70
     1
102
RTVSPropertyOp4
 70
     1
102
RTVSPropertyOp5
 70
     1
102
RTVSPropertyOp6
 70
     1
102
RTVSPropertyOp7
 70
     1
102
RTVSPropertyOp8
 70
     1
102
RTVSPropertyOp9
 70
     1
102
RTVSPropertyOp10
 70
     1
102
RTVSPropertyOp11
 70
     1
102
RTVSPropertyOp12
 70
     1
102
RTVSPropertyOp13
 70
     1
102
RTVSPropertyOp14
 70
     1
102
RTVSPropertyOp15
 70
     1
102
RTVSPropertyOp16
 70
     1
102
RTVSPropertyOp17
 70
     1
102
RTVSPropertyOp18
 70
     1
102
RTVSPropertyOp19
 70
     1
102
RTVSPropertyOp20
 70
     1
102
RTVSPropertyOp21
 70
     1
102
RTVSPropertyOp22
 70
     1
102
RTVSPropertyOp23
 70
     1
102
RTVSPropertyOp24
 70
     1
102
RTVSPropertyOp25
 70
     1
102
RTVSPropertyOp26
 70
     1
102
RTVSPropertyOp27
 70
     1
102
RTVSPropertyOp28
 70
     1
102
RTVSPropertyOp29
 70
     1
102
RTVSPropertyOp30
 70
     1
102
RTVSPropertyOp31
 70
     1
102
RTVSPropertyOp32
 70
     1
  0
XRECORD
  5
660
102
{ACAD_REACTORS
330
65F
102
}
330
65F
100
AcDbXrecord
280
     1
102
RTVSPropertyOp0
 70
     1
102
RTVSPropertyOp1
 70
     1
102
RTVSPropertyOp2
 70
     1
102
RTVSPropertyOp3
 70
     1
102
RTVSPropertyOp4
 70
     1
102
RTVSPropertyOp5
 70
     1
102
RTVSPropertyOp6
 70
     1
102
RTVSPropertyOp7
 70
     1
102
RTVSPropertyOp8
 70
     1
102
RTVSPropertyOp9
 70
     1
102
RTVSPropertyOp10
 70
     1
102
RTVSPropertyOp11
 70
     1
102
RTVSPropertyOp12
 70
     1
102
RTVSPropertyOp13
 70
     1
102
RTVSPropertyOp14
 70
     1
102
RTVSPropertyOp15
 70
     1
102
RTVSPropertyOp16
 70
     1
102
RTVSPropertyOp17
 70
     1
102
RTVSPropertyOp18
 70
     1
102
RTVSPropertyOp19
 70
     1
102
RTVSPropertyOp20
 70
     1
102
RTVSPropertyOp21
 70
     1
102
RTVSPropertyOp22
 70
     1
102
RTVSPropertyOp23
 70
     1
102
RTVSPropertyOp24
 70
     1
102
RTVSPropertyOp25
 70
     1
102
RTVSPropertyOp26
 70
     1
102
RTVSPropertyOp27
 70
     1
102
RTVSPropertyOp28
 70
     1
102
RTVSPropertyOp29
 70
     1
102
RTVSPropertyOp30
 70
     1
102
RTVSPropertyOp31
 70
     1
102
RTVSPropertyOp32
 70
     1
  0
XRECORD
  5
664
102
{ACAD_REACTORS
330
663
102
}
330
663
100
AcDbXrecord
280
     1
102
RTVSPropertyOp0
 70
     1
102
RTVSPropertyOp1
 70
     1
102
RTVSPropertyOp2
 70
     1
102
RTVSPropertyOp3
 70
     1
102
RTVSPropertyOp4
 70
     1
102
RTVSPropertyOp5
 70
     1
102
RTVSPropertyOp6
 70
     1
102
RTVSPropertyOp7
 70
     1
102
RTVSPropertyOp8
 70
     1
102
RTVSPropertyOp9
 70
     1
102
RTVSPropertyOp10
 70
     1
102
RTVSPropertyOp11
 70
     1
102
RTVSPropertyOp12
 70
     1
102
RTVSPropertyOp13
 70
     1
102
RTVSPropertyOp14
 70
     1
102
RTVSPropertyOp15
 70
     1
102
RTVSPropertyOp16
 70
     1
102
RTVSPropertyOp17
 70
     1
102
RTVSPropertyOp18
 70
     1
102
RTVSPropertyOp19
 70
     1
102
RTVSPropertyOp20
 70
     1
102
RTVSPropertyOp21
 70
     1
102
RTVSPropertyOp22
 70
     1
102
RTVSPropertyOp23
 70
     1
102
RTVSPropertyOp24
 70
     1
102
RTVSPropertyOp25
 70
     1
102
RTVSPropertyOp26
 70
     1
102
RTVSPropertyOp27
 70
     1
102
RTVSPropertyOp28
 70
     1
102
RTVSPropertyOp29
 70
     1
102
RTVSPropertyOp30
 70
     1
102
RTVSPropertyOp31
 70
     1
102
RTVSPropertyOp32
 70
     1
  0
XRECORD
  5
674
102
{ACAD_REACTORS
330
673
102
}
330
673
100
AcDbXrecord
280
     1
102
RTVSPropertyOp0
 70
     0
102
RTVSPropertyOp1
 70
     0
102
RTVSPropertyOp2
 70
     0
102
RTVSPropertyOp3
 70
     0
102
RTVSPropertyOp4
 70
     0
102
RTVSPropertyOp5
 70
     0
102
RTVSPropertyOp6
 70
     0
102
RTVSPropertyOp7
 70
     0
102
RTVSPropertyOp8
 70
     0
102
RTVSPropertyOp9
 70
     0
102
RTVSPropertyOp10
 70
     0
102
RTVSPropertyOp11
 70
     0
102
RTVSPropertyOp12
 70
     0
102
RTVSPropertyOp13
 70
     0
102
RTVSPropertyOp14
 70
     2
102
RTVSPropertyOp15
 70
     0
102
RTVSPropertyOp16
 70
     0
102
RTVSPropertyOp17
 70
     0
102
RTVSPropertyOp18
 70
     0
102
RTVSPropertyOp19
 70
     0
102
RTVSPropertyOp20
 70
     0
102
RTVSPropertyOp21
 70
     0
102
RTVSPropertyOp22
 70
     0
102
RTVSPropertyOp23
 70
     0
102
RTVSPropertyOp24
 70
     0
102
RTVSPropertyOp25
 70
     0
102
RTVSPropertyOp26
 70
     0
102
RTVSPropertyOp27
 70
     0
102
RTVSPropertyOp28
 70
     1
102
RTVSPropertyOp29
 70
     1
102
RTVSPropertyOp30
 70
     1
102
RTVSPropertyOp31
 70
     1
102
RTVSPropertyOp32
 70
     1
  0
XRECORD
  5
66C
102
{ACAD_REACTORS
330
66B
102
}
330
66B
100
AcDbXrecord
280
     1
102
RTVSPropertyOp0
 70
     1
102
RTVSPropertyOp1
 70
     1
102
RTVSPropertyOp2
 70
     1
102
RTVSPropertyOp3
 70
     1
102
RTVSPropertyOp4
 70
     1
102
RTVSPropertyOp5
 70
     1
102
RTVSPropertyOp6
 70
     1
102
RTVSPropertyOp7
 70
     1
102
RTVSPropertyOp8
 70
     1
102
RTVSPropertyOp9
 70
     1
102
RTVSPropertyOp10
 70
     1
102
RTVSPropertyOp11
 70
     1
102
RTVSPropertyOp12
 70
     1
102
RTVSPropertyOp13
 70
     1
102
RTVSPropertyOp14
 70
     1
102
RTVSPropertyOp15
 70
     1
102
RTVSPropertyOp16
 70
     1
102
RTVSPropertyOp17
 70
     1
102
RTVSPropertyOp18
 70
     1
102
RTVSPropertyOp19
 70
     1
102
RTVSPropertyOp20
 70
     1
102
RTVSPropertyOp21
 70
     1
102
RTVSPropertyOp22
 70
     1
102
RTVSPropertyOp23
 70
     1
102
RTVSPropertyOp24
 70
     1
102
RTVSPropertyOp25
 70
     1
102
RTVSPropertyOp26
 70
     1
102
RTVSPropertyOp27
 70
     1
102
RTVSPropertyOp28
 70
     1
102
RTVSPropertyOp29
 70
     1
102
RTVSPropertyOp30
 70
     1
102
RTVSPropertyOp31
 70
     1
102
RTVSPropertyOp32
 70
     1
  0
XRECORD
  5
650
102
{ACAD_REACTORS
330
64F
102
}
330
64F
100
AcDbXrecord
280
     1
102
RTVSPropertyOp0
 70
     1
102
RTVSPropertyOp1
 70
     1
102
RTVSPropertyOp2
 70
     1
102
RTVSPropertyOp3
 70
     1
102
RTVSPropertyOp4
 70
     1
102
RTVSPropertyOp5
 70
     1
102
RTVSPropertyOp6
 70
     1
102
RTVSPropertyOp7
 70
     1
102
RTVSPropertyOp8
 70
     1
102
RTVSPropertyOp9
 70
     1
102
RTVSPropertyOp10
 70
     1
102
RTVSPropertyOp11
 70
     1
102
RTVSPropertyOp12
 70
     1
102
RTVSPropertyOp13
 70
     1
102
RTVSPropertyOp14
 70
     1
102
RTVSPropertyOp15
 70
     1
102
RTVSPropertyOp16
 70
     1
102
RTVSPropertyOp17
 70
     1
102
RTVSPropertyOp18
 70
     1
102
RTVSPropertyOp19
 70
     1
102
RTVSPropertyOp20
 70
     1
102
RTVSPropertyOp21
 70
     1
102
RTVSPropertyOp22
 70
     1
102
RTVSPropertyOp23
 70
     1
102
RTVSPropertyOp24
 70
     1
102
RTVSPropertyOp25
 70
     1
102
RTVSPropertyOp26
 70
     1
102
RTVSPropertyOp27
 70
     1
102
RTVSPropertyOp28
 70
     1
102
RTVSPropertyOp29
 70
     1
102
RTVSPropertyOp30
 70
     1
102
RTVSPropertyOp31
 70
     1
102
RTVSPropertyOp32
 70
     1
  0
XRECORD
  5
652
102
{ACAD_REACTORS
330
651
102
}
330
651
100
AcDbXrecord
280
     1
102
RTVSPropertyOp0
 70
     1
102
RTVSPropertyOp1
 70
     1
102
RTVSPropertyOp2
 70
     1
102
RTVSPropertyOp3
 70
     1
102
RTVSPropertyOp4
 70
     1
102
RTVSPropertyOp5
 70
     1
102
RTVSPropertyOp6
 70
     1
102
RTVSPropertyOp7
 70
     1
102
RTVSPropertyOp8
 70
     1
102
RTVSPropertyOp9
 70
     1
102
RTVSPropertyOp10
 70
     1
102
RTVSPropertyOp11
 70
     1
102
RTVSPropertyOp12
 70
     1
102
RTVSPropertyOp13
 70
     1
102
RTVSPropertyOp14
 70
     1
102
RTVSPropertyOp15
 70
     1
102
RTVSPropertyOp16
 70
     1
102
RTVSPropertyOp17
 70
     1
102
RTVSPropertyOp18
 70
     1
102
RTVSPropertyOp19
 70
     1
102
RTVSPropertyOp20
 70
     1
102
RTVSPropertyOp21
 70
     1
102
RTVSPropertyOp22
 70
     1
102
RTVSPropertyOp23
 70
     1
102
RTVSPropertyOp24
 70
     1
102
RTVSPropertyOp25
 70
     1
102
RTVSPropertyOp26
 70
     1
102
RTVSPropertyOp27
 70
     1
102
RTVSPropertyOp28
 70
     1
102
RTVSPropertyOp29
 70
     1
102
RTVSPropertyOp30
 70
     1
102
RTVSPropertyOp31
 70
     1
102
RTVSPropertyOp32
 70
     1
  0
XRECORD
  5
654
102
{ACAD_REACTORS
330
653
102
}
330
653
100
AcDbXrecord
280
     1
102
RTVSPropertyOp0
 70
     1
102
RTVSPropertyOp1
 70
     1
102
RTVSPropertyOp2
 70
     1
102
RTVSPropertyOp3
 70
     1
102
RTVSPropertyOp4
 70
     1
102
RTVSPropertyOp5
 70
     1
102
RTVSPropertyOp6
 70
     1
102
RTVSPropertyOp7
 70
     1
102
RTVSPropertyOp8
 70
     1
102
RTVSPropertyOp9
 70
     1
102
RTVSPropertyOp10
 70
     1
102
RTVSPropertyOp11
 70
     1
102
RTVSPropertyOp12
 70
     1
102
RTVSPropertyOp13
 70
     1
102
RTVSPropertyOp14
 70
     1
102
RTVSPropertyOp15
 70
     1
102
RTVSPropertyOp16
 70
     1
102
RTVSPropertyOp17
 70
     1
102
RTVSPropertyOp18
 70
     1
102
RTVSPropertyOp19
 70
     1
102
RTVSPropertyOp20
 70
     1
102
RTVSPropertyOp21
 70
     1
102
RTVSPropertyOp22
 70
     1
102
RTVSPropertyOp23
 70
     1
102
RTVSPropertyOp24
 70
     1
102
RTVSPropertyOp25
 70
     1
102
RTVSPropertyOp26
 70
     1
102
RTVSPropertyOp27
 70
     1
102
RTVSPropertyOp28
 70
     1
102
RTVSPropertyOp29
 70
     1
102
RTVSPropertyOp30
 70
     1
102
RTVSPropertyOp31
 70
     1
102
RTVSPropertyOp32
 70
     1
  0
XRECORD
  5
656
102
{ACAD_REACTORS
330
655
102
}
330
655
100
AcDbXrecord
280
     1
102
RTVSPropertyOp0
 70
     1
102
RTVSPropertyOp1
 70
     1
102
RTVSPropertyOp2
 70
     1
102
RTVSPropertyOp3
 70
     1
102
RTVSPropertyOp4
 70
     1
102
RTVSPropertyOp5
 70
     1
102
RTVSPropertyOp6
 70
     1
102
RTVSPropertyOp7
 70
     1
102
RTVSPropertyOp8
 70
     1
102
RTVSPropertyOp9
 70
     1
102
RTVSPropertyOp10
 70
     1
102
RTVSPropertyOp11
 70
     1
102
RTVSPropertyOp12
 70
     1
102
RTVSPropertyOp13
 70
     1
102
RTVSPropertyOp14
 70
     1
102
RTVSPropertyOp15
 70
     1
102
RTVSPropertyOp16
 70
     1
102
RTVSPropertyOp17
 70
     1
102
RTVSPropertyOp18
 70
     1
102
RTVSPropertyOp19
 70
     1
102
RTVSPropertyOp20
 70
     1
102
RTVSPropertyOp21
 70
     1
102
RTVSPropertyOp22
 70
     1
102
RTVSPropertyOp23
 70
     1
102
RTVSPropertyOp24
 70
     1
102
RTVSPropertyOp25
 70
     1
102
RTVSPropertyOp26
 70
     1
102
RTVSPropertyOp27
 70
     1
102
RTVSPropertyOp28
 70
     1
102
RTVSPropertyOp29
 70
     1
102
RTVSPropertyOp30
 70
     1
102
RTVSPropertyOp31
 70
     1
102
RTVSPropertyOp32
 70
     1
  0
XRECORD
  5
68B
102
{ACAD_REACTORS
330
68A
102
}
330
68A
100
AcDbXrecord
280
     1
102
RTVSPropertyOp0
 70
     1
102
RTVSPropertyOp1
 70
     1
102
RTVSPropertyOp2
 70
     1
102
RTVSPropertyOp3
 70
     1
102
RTVSPropertyOp4
 70
     1
102
RTVSPropertyOp5
 70
     1
102
RTVSPropertyOp6
 70
     1
102
RTVSPropertyOp7
 70
     1
102
RTVSPropertyOp8
 70
     1
102
RTVSPropertyOp9
 70
     1
102
RTVSPropertyOp10
 70
     1
102
RTVSPropertyOp11
 70
     1
102
RTVSPropertyOp12
 70
     1
102
RTVSPropertyOp13
 70
     1
102
RTVSPropertyOp14
 70
     1
102
RTVSPropertyOp15
 70
     1
102
RTVSPropertyOp16
 70
     1
102
RTVSPropertyOp17
 70
     1
102
RTVSPropertyOp18
 70
     1
102
RTVSPropertyOp19
 70
     1
102
RTVSPropertyOp20
 70
     1
102
RTVSPropertyOp21
 70
     1
102
RTVSPropertyOp22
 70
     1
102
RTVSPropertyOp23
 70
     1
102
RTVSPropertyOp24
 70
     1
102
RTVSPropertyOp25
 70
     1
102
RTVSPropertyOp26
 70
     1
102
RTVSPropertyOp27
 70
     1
102
RTVSPropertyOp28
 70
     1
102
RTVSPropertyOp29
 70
     1
102
RTVSPropertyOp30
 70
     1
102
RTVSPropertyOp31
 70
     1
102
RTVSPropertyOp32
 70
     1
  0
XRECORD
  5
670
102
{ACAD_REACTORS
330
66F
102
}
330
66F
100
AcDbXrecord
280
     1
102
RTVSPropertyOp0
 70
     0
102
RTVSPropertyOp1
 70
     0
102
RTVSPropertyOp2
 70
     0
102
RTVSPropertyOp3
 70
     0
102
RTVSPropertyOp4
 70
     0
102
RTVSPropertyOp5
 70
     0
102
RTVSPropertyOp6
 70
     0
102
RTVSPropertyOp7
 70
     0
102
RTVSPropertyOp8
 70
     0
102
RTVSPropertyOp9
 70
     0
102
RTVSPropertyOp10
 70
     0
102
RTVSPropertyOp11
 70
     0
102
RTVSPropertyOp12
 70
     0
102
RTVSPropertyOp13
 70
     0
102
RTVSPropertyOp14
 70
     2
102
RTVSPropertyOp15
 70
     0
102
RTVSPropertyOp16
 70
     0
102
RTVSPropertyOp17
 70
     0
102
RTVSPropertyOp18
 70
     0
102
RTVSPropertyOp19
 70
     0
102
RTVSPropertyOp20
 70
     0
102
RTVSPropertyOp21
 70
     0
102
RTVSPropertyOp22
 70
     0
102
RTVSPropertyOp23
 70
     0
102
RTVSPropertyOp24
 70
     0
102
RTVSPropertyOp25
 70
     0
102
RTVSPropertyOp26
 70
     0
102
RTVSPropertyOp27
 70
     0
102
RTVSPropertyOp28
 70
     1
102
RTVSPropertyOp29
 70
     1
102
RTVSPropertyOp30
 70
     1
102
RTVSPropertyOp31
 70
     1
102
RTVSPropertyOp32
 70
     1
  0
XRECORD
  5
66A
102
{ACAD_REACTORS
330
669
102
}
330
669
100
AcDbXrecord
280
     1
102
RTVSPropertyOp0
 70
     1
102
RTVSPropertyOp1
 70
     1
102
RTVSPropertyOp2
 70
     1
102
RTVSPropertyOp3
 70
     1
102
RTVSPropertyOp4
 70
     1
102
RTVSPropertyOp5
 70
     1
102
RTVSPropertyOp6
 70
     1
102
RTVSPropertyOp7
 70
     1
102
RTVSPropertyOp8
 70
     1
102
RTVSPropertyOp9
 70
     1
102
RTVSPropertyOp10
 70
     1
102
RTVSPropertyOp11
 70
     1
102
RTVSPropertyOp12
 70
     1
102
RTVSPropertyOp13
 70
     1
102
RTVSPropertyOp14
 70
     1
102
RTVSPropertyOp15
 70
     1
102
RTVSPropertyOp16
 70
     1
102
RTVSPropertyOp17
 70
     1
102
RTVSPropertyOp18
 70
     1
102
RTVSPropertyOp19
 70
     1
102
RTVSPropertyOp20
 70
     1
102
RTVSPropertyOp21
 70
     1
102
RTVSPropertyOp22
 70
     1
102
RTVSPropertyOp23
 70
     1
102
RTVSPropertyOp24
 70
     1
102
RTVSPropertyOp25
 70
     1
102
RTVSPropertyOp26
 70
     1
102
RTVSPropertyOp27
 70
     1
102
RTVSPropertyOp28
 70
     1
102
RTVSPropertyOp29
 70
     1
102
RTVSPropertyOp30
 70
     1
102
RTVSPropertyOp31
 70
     1
102
RTVSPropertyOp32
 70
     1
  0
XRECORD
  5
672
102
{ACAD_REACTORS
330
671
102
}
330
671
100
AcDbXrecord
280
     1
102
RTVSPropertyOp0
 70
     0
102
RTVSPropertyOp1
 70
     0
102
RTVSPropertyOp2
 70
     0
102
RTVSPropertyOp3
 70
     0
102
RTVSPropertyOp4
 70
     0
102
RTVSPropertyOp5
 70
     0
102
RTVSPropertyOp6
 70
     0
102
RTVSPropertyOp7
 70
     0
102
RTVSPropertyOp8
 70
     0
102
RTVSPropertyOp9
 70
     0
102
RTVSPropertyOp10
 70
     0
102
RTVSPropertyOp11
 70
     0
102
RTVSPropertyOp12
 70
     0
102
RTVSPropertyOp13
 70
     0
102
RTVSPropertyOp14
 70
     2
102
RTVSPropertyOp15
 70
     0
102
RTVSPropertyOp16
 70
     0
102
RTVSPropertyOp17
 70
     0
102
RTVSPropertyOp18
 70
     0
102
RTVSPropertyOp19
 70
     0
102
RTVSPropertyOp20
 70
     0
102
RTVSPropertyOp21
 70
     0
102
RTVSPropertyOp22
 70
     0
102
RTVSPropertyOp23
 70
     0
102
RTVSPropertyOp24
 70
     0
102
RTVSPropertyOp25
 70
     0
102
RTVSPropertyOp26
 70
     0
102
RTVSPropertyOp27
 70
     0
102
RTVSPropertyOp28
 70
     1
102
RTVSPropertyOp29
 70
     1
102
RTVSPropertyOp30
 70
     1
102
RTVSPropertyOp31
 70
     1
102
RTVSPropertyOp32
 70
     1
  0
XRECORD
  5
662
102
{ACAD_REACTORS
330
661
102
}
330
661
100
AcDbXrecord
280
     1
102
RTVSPropertyOp0
 70
     1
102
RTVSPropertyOp1
 70
     1
102
RTVSPropertyOp2
 70
     1
102
RTVSPropertyOp3
 70
     1
102
RTVSPropertyOp4
 70
     1
102
RTVSPropertyOp5
 70
     1
102
RTVSPropertyOp6
 70
     1
102
RTVSPropertyOp7
 70
     1
102
RTVSPropertyOp8
 70
     1
102
RTVSPropertyOp9
 70
     1
102
RTVSPropertyOp10
 70
     1
102
RTVSPropertyOp11
 70
     1
102
RTVSPropertyOp12
 70
     1
102
RTVSPropertyOp13
 70
     1
102
RTVSPropertyOp14
 70
     1
102
RTVSPropertyOp15
 70
     1
102
RTVSPropertyOp16
 70
     1
102
RTVSPropertyOp17
 70
     1
102
RTVSPropertyOp18
 70
     1
102
RTVSPropertyOp19
 70
     1
102
RTVSPropertyOp20
 70
     1
102
RTVSPropertyOp21
 70
     1
102
RTVSPropertyOp22
 70
     1
102
RTVSPropertyOp23
 70
     1
102
RTVSPropertyOp24
 70
     1
102
RTVSPropertyOp25
 70
     1
102
RTVSPropertyOp26
 70
     1
102
RTVSPropertyOp27
 70
     1
102
RTVSPropertyOp28
 70
     1
102
RTVSPropertyOp29
 70
     1
102
RTVSPropertyOp30
 70
     1
102
RTVSPropertyOp31
 70
     1
102
RTVSPropertyOp32
 70
     1
  0
XRECORD
  5
695
102
{ACAD_REACTORS
330
694
102
}
330
694
100
AcDbXrecord
280
     1
102
RTVSPropertyOp0
 70
     1
102
RTVSPropertyOp1
 70
     1
102
RTVSPropertyOp2
 70
     1
102
RTVSPropertyOp3
 70
     1
102
RTVSPropertyOp4
 70
     1
102
RTVSPropertyOp5
 70
     1
102
RTVSPropertyOp6
 70
     1
102
RTVSPropertyOp7
 70
     1
102
RTVSPropertyOp8
 70
     1
102
RTVSPropertyOp9
 70
     1
102
RTVSPropertyOp10
 70
     1
102
RTVSPropertyOp11
 70
     1
102
RTVSPropertyOp12
 70
     1
102
RTVSPropertyOp13
 70
     1
102
RTVSPropertyOp14
 70
     1
102
RTVSPropertyOp15
 70
     1
102
RTVSPropertyOp16
 70
     1
102
RTVSPropertyOp17
 70
     1
102
RTVSPropertyOp18
 70
     1
102
RTVSPropertyOp19
 70
     1
102
RTVSPropertyOp20
 70
     1
102
RTVSPropertyOp21
 70
     1
102
RTVSPropertyOp22
 70
     1
102
RTVSPropertyOp23
 70
     1
102
RTVSPropertyOp24
 70
     1
102
RTVSPropertyOp25
 70
     1
102
RTVSPropertyOp26
 70
     1
102
RTVSPropertyOp27
 70
     1
102
RTVSPropertyOp28
 70
     1
102
RTVSPropertyOp29
 70
     1
102
RTVSPropertyOp30
 70
     1
102
RTVSPropertyOp31
 70
     1
102
RTVSPropertyOp32
 70
     1
  0
XRECORD
  5
693
102
{ACAD_REACTORS
330
692
102
}
330
692
100
AcDbXrecord
280
     1
102
RTVSPropertyOp0
 70
     1
102
RTVSPropertyOp1
 70
     1
102
RTVSPropertyOp2
 70
     1
102
RTVSPropertyOp3
 70
     1
102
RTVSPropertyOp4
 70
     1
102
RTVSPropertyOp5
 70
     1
102
RTVSPropertyOp6
 70
     1
102
RTVSPropertyOp7
 70
     1
102
RTVSPropertyOp8
 70
     1
102
RTVSPropertyOp9
 70
     1
102
RTVSPropertyOp10
 70
     1
102
RTVSPropertyOp11
 70
     1
102
RTVSPropertyOp12
 70
     1
102
RTVSPropertyOp13
 70
     1
102
RTVSPropertyOp14
 70
     1
102
RTVSPropertyOp15
 70
     1
102
RTVSPropertyOp16
 70
     1
102
RTVSPropertyOp17
 70
     1
102
RTVSPropertyOp18
 70
     1
102
RTVSPropertyOp19
 70
     1
102
RTVSPropertyOp20
 70
     1
102
RTVSPropertyOp21
 70
     1
102
RTVSPropertyOp22
 70
     1
102
RTVSPropertyOp23
 70
     1
102
RTVSPropertyOp24
 70
     1
102
RTVSPropertyOp25
 70
     1
102
RTVSPropertyOp26
 70
     1
102
RTVSPropertyOp27
 70
     1
102
RTVSPropertyOp28
 70
     1
102
RTVSPropertyOp29
 70
     1
102
RTVSPropertyOp30
 70
     1
102
RTVSPropertyOp31
 70
     1
102
RTVSPropertyOp32
 70
     1
  0
XRECORD
  5
68D
102
{ACAD_REACTORS
330
68C
102
}
330
68C
100
AcDbXrecord
280
     1
102
RTVSPropertyOp0
 70
     1
102
RTVSPropertyOp1
 70
     1
102
RTVSPropertyOp2
 70
     1
102
RTVSPropertyOp3
 70
     1
102
RTVSPropertyOp4
 70
     1
102
RTVSPropertyOp5
 70
     1
102
RTVSPropertyOp6
 70
     1
102
RTVSPropertyOp7
 70
     1
102
RTVSPropertyOp8
 70
     1
102
RTVSPropertyOp9
 70
     1
102
RTVSPropertyOp10
 70
     1
102
RTVSPropertyOp11
 70
     1
102
RTVSPropertyOp12
 70
     1
102
RTVSPropertyOp13
 70
     1
102
RTVSPropertyOp14
 70
     1
102
RTVSPropertyOp15
 70
     1
102
RTVSPropertyOp16
 70
     1
102
RTVSPropertyOp17
 70
     1
102
RTVSPropertyOp18
 70
     1
102
RTVSPropertyOp19
 70
     1
102
RTVSPropertyOp20
 70
     1
102
RTVSPropertyOp21
 70
     1
102
RTVSPropertyOp22
 70
     1
102
RTVSPropertyOp23
 70
     1
102
RTVSPropertyOp24
 70
     1
102
RTVSPropertyOp25
 70
     1
102
RTVSPropertyOp26
 70
     1
102
RTVSPropertyOp27
 70
     1
102
RTVSPropertyOp28
 70
     1
102
RTVSPropertyOp29
 70
     1
102
RTVSPropertyOp30
 70
     1
102
RTVSPropertyOp31
 70
     1
102
RTVSPropertyOp32
 70
     1
  0
XRECORD
  5
68F
102
{ACAD_REACTORS
330
68E
102
}
330
68E
100
AcDbXrecord
280
     1
102
RTVSPropertyOp0
 70
     1
102
RTVSPropertyOp1
 70
     1
102
RTVSPropertyOp2
 70
     1
102
RTVSPropertyOp3
 70
     1
102
RTVSPropertyOp4
 70
     1
102
RTVSPropertyOp5
 70
     1
102
RTVSPropertyOp6
 70
     1
102
RTVSPropertyOp7
 70
     1
102
RTVSPropertyOp8
 70
     1
102
RTVSPropertyOp9
 70
     1
102
RTVSPropertyOp10
 70
     1
102
RTVSPropertyOp11
 70
     1
102
RTVSPropertyOp12
 70
     1
102
RTVSPropertyOp13
 70
     1
102
RTVSPropertyOp14
 70
     1
102
RTVSPropertyOp15
 70
     1
102
RTVSPropertyOp16
 70
     1
102
RTVSPropertyOp17
 70
     1
102
RTVSPropertyOp18
 70
     1
102
RTVSPropertyOp19
 70
     1
102
RTVSPropertyOp20
 70
     1
102
RTVSPropertyOp21
 70
     1
102
RTVSPropertyOp22
 70
     1
102
RTVSPropertyOp23
 70
     1
102
RTVSPropertyOp24
 70
     1
102
RTVSPropertyOp25
 70
     1
102
RTVSPropertyOp26
 70
     1
102
RTVSPropertyOp27
 70
     1
102
RTVSPropertyOp28
 70
     1
102
RTVSPropertyOp29
 70
     1
102
RTVSPropertyOp30
 70
     1
102
RTVSPropertyOp31
 70
     1
102
RTVSPropertyOp32
 70
     1
  0
XRECORD
  5
668
102
{ACAD_REACTORS
330
667
102
}
330
667
100
AcDbXrecord
280
     1
102
RTVSPropertyOp0
 70
     1
102
RTVSPropertyOp1
 70
     1
102
RTVSPropertyOp2
 70
     1
102
RTVSPropertyOp3
 70
     1
102
RTVSPropertyOp4
 70
     1
102
RTVSPropertyOp5
 70
     1
102
RTVSPropertyOp6
 70
     1
102
RTVSPropertyOp7
 70
     1
102
RTVSPropertyOp8
 70
     1
102
RTVSPropertyOp9
 70
     1
102
RTVSPropertyOp10
 70
     1
102
RTVSPropertyOp11
 70
     1
102
RTVSPropertyOp12
 70
     1
102
RTVSPropertyOp13
 70
     1
102
RTVSPropertyOp14
 70
     1
102
RTVSPropertyOp15
 70
     1
102
RTVSPropertyOp16
 70
     1
102
RTVSPropertyOp17
 70
     1
102
RTVSPropertyOp18
 70
     1
102
RTVSPropertyOp19
 70
     1
102
RTVSPropertyOp20
 70
     1
102
RTVSPropertyOp21
 70
     1
102
RTVSPropertyOp22
 70
     1
102
RTVSPropertyOp23
 70
     1
102
RTVSPropertyOp24
 70
     1
102
RTVSPropertyOp25
 70
     1
102
RTVSPropertyOp26
 70
     1
102
RTVSPropertyOp27
 70
     1
102
RTVSPropertyOp28
 70
     1
102
RTVSPropertyOp29
 70
     1
102
RTVSPropertyOp30
 70
     1
102
RTVSPropertyOp31
 70
     1
102
RTVSPropertyOp32
 70
     1
  0
XRECORD
  5
689
102
{ACAD_REACTORS
330
688
102
}
330
688
100
AcDbXrecord
280
     1
102
RTVSPropertyOp0
 70
     1
102
RTVSPropertyOp1
 70
     1
102
RTVSPropertyOp2
 70
     1
102
RTVSPropertyOp3
 70
     1
102
RTVSPropertyOp4
 70
     1
102
RTVSPropertyOp5
 70
     1
102
RTVSPropertyOp6
 70
     1
102
RTVSPropertyOp7
 70
     1
102
RTVSPropertyOp8
 70
     1
102
RTVSPropertyOp9
 70
     1
102
RTVSPropertyOp10
 70
     1
102
RTVSPropertyOp11
 70
     1
102
RTVSPropertyOp12
 70
     1
102
RTVSPropertyOp13
 70
     1
102
RTVSPropertyOp14
 70
     1
102
RTVSPropertyOp15
 70
     1
102
RTVSPropertyOp16
 70
     1
102
RTVSPropertyOp17
 70
     1
102
RTVSPropertyOp18
 70
     1
102
RTVSPropertyOp19
 70
     1
102
RTVSPropertyOp20
 70
     1
102
RTVSPropertyOp21
 70
     1
102
RTVSPropertyOp22
 70
     1
102
RTVSPropertyOp23
 70
     1
102
RTVSPropertyOp24
 70
     1
102
RTVSPropertyOp25
 70
     1
102
RTVSPropertyOp26
 70
     1
102
RTVSPropertyOp27
 70
     1
102
RTVSPropertyOp28
 70
     1
102
RTVSPropertyOp29
 70
     1
102
RTVSPropertyOp30
 70
     1
102
RTVSPropertyOp31
 70
     1
102
RTVSPropertyOp32
 70
     1
  0
XRECORD
  5
691
102
{ACAD_REACTORS
330
690
102
}
330
690
100
AcDbXrecord
280
     1
102
RTVSPropertyOp0
 70
     1
102
RTVSPropertyOp1
 70
     1
102
RTVSPropertyOp2
 70
     1
102
RTVSPropertyOp3
 70
     1
102
RTVSPropertyOp4
 70
     1
102
RTVSPropertyOp5
 70
     1
102
RTVSPropertyOp6
 70
     1
102
RTVSPropertyOp7
 70
     1
102
RTVSPropertyOp8
 70
     1
102
RTVSPropertyOp9
 70
     1
102
RTVSPropertyOp10
 70
     1
102
RTVSPropertyOp11
 70
     1
102
RTVSPropertyOp12
 70
     1
102
RTVSPropertyOp13
 70
     1
102
RTVSPropertyOp14
 70
     1
102
RTVSPropertyOp15
 70
     1
102
RTVSPropertyOp16
 70
     1
102
RTVSPropertyOp17
 70
     1
102
RTVSPropertyOp18
 70
     1
102
RTVSPropertyOp19
 70
     1
102
RTVSPropertyOp20
 70
     1
102
RTVSPropertyOp21
 70
     1
102
RTVSPropertyOp22
 70
     1
102
RTVSPropertyOp23
 70
     1
102
RTVSPropertyOp24
 70
     1
102
RTVSPropertyOp25
 70
     1
102
RTVSPropertyOp26
 70
     1
102
RTVSPropertyOp27
 70
     1
102
RTVSPropertyOp28
 70
     1
102
RTVSPropertyOp29
 70
     1
102
RTVSPropertyOp30
 70
     1
102
RTVSPropertyOp31
 70
     1
102
RTVSPropertyOp32
 70
     1
  0
ENDSEC
  0
EOF
