ISO-10303-21;
HEADER;
/* Generated by software containing ST-Developer
 * from STEP Tools, Inc. (www.steptools.com) 
 */

FILE_DESCRIPTION(
/* description */ ('PIATTO DI FISS. PALO 60X60 A TRAVERSA'),
/* implementation_level */ '2;1');

FILE_NAME(
/* name */ 'Q:\\MARKETING\\DPSXX0000959\\DPSXX0000959.stp',
/* time_stamp */ '2024-09-10T11:45:36+02:00',
/* author */ ('tecnico4'),
/* organization */ (''),
/* preprocessor_version */ 'ST-DEVELOPER v18.1',
/* originating_system */ 'Autodesk Inventor 2022',
/* authorisation */ '');

FILE_SCHEMA (('AUTOMOTIVE_DESIGN { 1 0 10303 214 3 1 1 }'));
ENDSEC;

DATA;
#10=MECHANICAL_DESIGN_GEOMETRIC_PRESENTATION_REPRESENTATION('',(#13),#628);
#11=SHAPE_REPRESENTATION_RELATIONSHIP('SRR','None',#635,#12);
#12=ADVANCED_BREP_SHAPE_REPRESENTATION('',(#14),#627);
#13=STYLED_ITEM('',(#644),#14);
#14=MANIFOLD_SOLID_BREP('Solido2',#351);
#15=FACE_BOUND('',#68,.T.);
#16=FACE_BOUND('',#69,.T.);
#17=FACE_BOUND('',#70,.T.);
#18=FACE_BOUND('',#71,.T.);
#19=FACE_BOUND('',#73,.T.);
#20=FACE_BOUND('',#74,.T.);
#21=FACE_BOUND('',#75,.T.);
#22=FACE_BOUND('',#76,.T.);
#23=PLANE('',#401);
#24=PLANE('',#405);
#25=PLANE('',#409);
#26=PLANE('',#413);
#27=PLANE('',#414);
#28=PLANE('',#415);
#29=CONICAL_SURFACE('',#390,6.625,0.785398163397448);
#30=CONICAL_SURFACE('',#392,6.625,0.785398163397448);
#31=CONICAL_SURFACE('',#394,6.625,0.785398163397448);
#32=CONICAL_SURFACE('',#396,6.625,0.785398163397448);
#33=FACE_OUTER_BOUND('',#51,.T.);
#34=FACE_OUTER_BOUND('',#52,.T.);
#35=FACE_OUTER_BOUND('',#53,.T.);
#36=FACE_OUTER_BOUND('',#54,.T.);
#37=FACE_OUTER_BOUND('',#55,.T.);
#38=FACE_OUTER_BOUND('',#56,.T.);
#39=FACE_OUTER_BOUND('',#57,.T.);
#40=FACE_OUTER_BOUND('',#58,.T.);
#41=FACE_OUTER_BOUND('',#59,.T.);
#42=FACE_OUTER_BOUND('',#60,.T.);
#43=FACE_OUTER_BOUND('',#61,.T.);
#44=FACE_OUTER_BOUND('',#62,.T.);
#45=FACE_OUTER_BOUND('',#63,.T.);
#46=FACE_OUTER_BOUND('',#64,.T.);
#47=FACE_OUTER_BOUND('',#65,.T.);
#48=FACE_OUTER_BOUND('',#66,.T.);
#49=FACE_OUTER_BOUND('',#67,.T.);
#50=FACE_OUTER_BOUND('',#72,.T.);
#51=EDGE_LOOP('',(#229,#230,#231,#232,#233));
#52=EDGE_LOOP('',(#234,#235,#236,#237,#238));
#53=EDGE_LOOP('',(#239,#240,#241,#242,#243));
#54=EDGE_LOOP('',(#244,#245,#246,#247,#248));
#55=EDGE_LOOP('',(#249,#250,#251,#252,#253));
#56=EDGE_LOOP('',(#254,#255,#256,#257,#258));
#57=EDGE_LOOP('',(#259,#260,#261,#262,#263));
#58=EDGE_LOOP('',(#264,#265,#266,#267,#268));
#59=EDGE_LOOP('',(#269,#270,#271,#272));
#60=EDGE_LOOP('',(#273,#274,#275,#276));
#61=EDGE_LOOP('',(#277,#278,#279,#280));
#62=EDGE_LOOP('',(#281,#282,#283,#284));
#63=EDGE_LOOP('',(#285,#286,#287,#288));
#64=EDGE_LOOP('',(#289,#290,#291,#292));
#65=EDGE_LOOP('',(#293,#294,#295,#296));
#66=EDGE_LOOP('',(#297,#298,#299,#300));
#67=EDGE_LOOP('',(#301,#302,#303,#304,#305,#306,#307,#308));
#68=EDGE_LOOP('',(#309));
#69=EDGE_LOOP('',(#310));
#70=EDGE_LOOP('',(#311));
#71=EDGE_LOOP('',(#312));
#72=EDGE_LOOP('',(#313,#314,#315,#316,#317,#318,#319,#320));
#73=EDGE_LOOP('',(#321));
#74=EDGE_LOOP('',(#322));
#75=EDGE_LOOP('',(#323));
#76=EDGE_LOOP('',(#324));
#77=LINE('',#531,#101);
#78=LINE('',#539,#102);
#79=LINE('',#547,#103);
#80=LINE('',#555,#104);
#81=LINE('',#561,#105);
#82=LINE('',#565,#106);
#83=LINE('',#569,#107);
#84=LINE('',#573,#108);
#85=LINE('',#580,#109);
#86=LINE('',#583,#110);
#87=LINE('',#586,#111);
#88=LINE('',#588,#112);
#89=LINE('',#589,#113);
#90=LINE('',#595,#114);
#91=LINE('',#598,#115);
#92=LINE('',#600,#116);
#93=LINE('',#601,#117);
#94=LINE('',#607,#118);
#95=LINE('',#610,#119);
#96=LINE('',#612,#120);
#97=LINE('',#613,#121);
#98=LINE('',#619,#122);
#99=LINE('',#621,#123);
#100=LINE('',#622,#124);
#101=VECTOR('',#422,4.25);
#102=VECTOR('',#431,4.25);
#103=VECTOR('',#440,4.24999999999999);
#104=VECTOR('',#449,4.25);
#105=VECTOR('',#456,6.625);
#106=VECTOR('',#461,6.625);
#107=VECTOR('',#466,6.625);
#108=VECTOR('',#471,6.625);
#109=VECTOR('',#478,4.);
#110=VECTOR('',#481,4.);
#111=VECTOR('',#484,57.9998839999996);
#112=VECTOR('',#485,57.9998839999996);
#113=VECTOR('',#486,4.);
#114=VECTOR('',#493,4.);
#115=VECTOR('',#496,97.9998039999997);
#116=VECTOR('',#497,97.9998039999997);
#117=VECTOR('',#498,4.);
#118=VECTOR('',#505,4.);
#119=VECTOR('',#508,57.9998839999996);
#120=VECTOR('',#509,57.9998839999996);
#121=VECTOR('',#510,4.);
#122=VECTOR('',#517,4.);
#123=VECTOR('',#520,97.9998039999997);
#124=VECTOR('',#521,97.9998039999997);
#125=CIRCLE('',#375,4.25);
#126=CIRCLE('',#376,4.25);
#127=CIRCLE('',#377,4.25);
#128=CIRCLE('',#379,4.25);
#129=CIRCLE('',#380,4.25);
#130=CIRCLE('',#381,4.25);
#131=CIRCLE('',#383,4.24999999999999);
#132=CIRCLE('',#384,4.24999999999999);
#133=CIRCLE('',#385,4.24999999999999);
#134=CIRCLE('',#387,4.25);
#135=CIRCLE('',#388,4.25);
#136=CIRCLE('',#389,4.25);
#137=CIRCLE('',#391,9.);
#138=CIRCLE('',#393,9.);
#139=CIRCLE('',#395,9.);
#140=CIRCLE('',#397,9.);
#141=CIRCLE('',#399,0.999997999999986);
#142=CIRCLE('',#400,0.999997999999986);
#143=CIRCLE('',#403,0.999997999999986);
#144=CIRCLE('',#404,0.999997999999986);
#145=CIRCLE('',#407,0.999997999999986);
#146=CIRCLE('',#408,0.999997999999986);
#147=CIRCLE('',#411,0.999997999999986);
#148=CIRCLE('',#412,0.999997999999986);
#149=VERTEX_POINT('',#528);
#150=VERTEX_POINT('',#530);
#151=VERTEX_POINT('',#532);
#152=VERTEX_POINT('',#536);
#153=VERTEX_POINT('',#538);
#154=VERTEX_POINT('',#540);
#155=VERTEX_POINT('',#544);
#156=VERTEX_POINT('',#546);
#157=VERTEX_POINT('',#548);
#158=VERTEX_POINT('',#552);
#159=VERTEX_POINT('',#554);
#160=VERTEX_POINT('',#556);
#161=VERTEX_POINT('',#560);
#162=VERTEX_POINT('',#564);
#163=VERTEX_POINT('',#568);
#164=VERTEX_POINT('',#572);
#165=VERTEX_POINT('',#576);
#166=VERTEX_POINT('',#577);
#167=VERTEX_POINT('',#579);
#168=VERTEX_POINT('',#581);
#169=VERTEX_POINT('',#585);
#170=VERTEX_POINT('',#587);
#171=VERTEX_POINT('',#591);
#172=VERTEX_POINT('',#593);
#173=VERTEX_POINT('',#597);
#174=VERTEX_POINT('',#599);
#175=VERTEX_POINT('',#603);
#176=VERTEX_POINT('',#605);
#177=VERTEX_POINT('',#609);
#178=VERTEX_POINT('',#611);
#179=VERTEX_POINT('',#615);
#180=VERTEX_POINT('',#617);
#181=EDGE_CURVE('',#149,#149,#125,.T.);
#182=EDGE_CURVE('',#149,#150,#77,.T.);
#183=EDGE_CURVE('',#151,#150,#126,.T.);
#184=EDGE_CURVE('',#150,#151,#127,.T.);
#185=EDGE_CURVE('',#152,#152,#128,.T.);
#186=EDGE_CURVE('',#152,#153,#78,.T.);
#187=EDGE_CURVE('',#154,#153,#129,.T.);
#188=EDGE_CURVE('',#153,#154,#130,.T.);
#189=EDGE_CURVE('',#155,#155,#131,.T.);
#190=EDGE_CURVE('',#155,#156,#79,.T.);
#191=EDGE_CURVE('',#157,#156,#132,.T.);
#192=EDGE_CURVE('',#156,#157,#133,.T.);
#193=EDGE_CURVE('',#158,#158,#134,.T.);
#194=EDGE_CURVE('',#158,#159,#80,.T.);
#195=EDGE_CURVE('',#160,#159,#135,.T.);
#196=EDGE_CURVE('',#159,#160,#136,.T.);
#197=EDGE_CURVE('',#151,#161,#81,.T.);
#198=EDGE_CURVE('',#161,#161,#137,.T.);
#199=EDGE_CURVE('',#157,#162,#82,.T.);
#200=EDGE_CURVE('',#162,#162,#138,.T.);
#201=EDGE_CURVE('',#154,#163,#83,.T.);
#202=EDGE_CURVE('',#163,#163,#139,.T.);
#203=EDGE_CURVE('',#160,#164,#84,.T.);
#204=EDGE_CURVE('',#164,#164,#140,.T.);
#205=EDGE_CURVE('',#165,#166,#141,.T.);
#206=EDGE_CURVE('',#166,#167,#85,.T.);
#207=EDGE_CURVE('',#168,#167,#142,.T.);
#208=EDGE_CURVE('',#165,#168,#86,.T.);
#209=EDGE_CURVE('',#169,#165,#87,.T.);
#210=EDGE_CURVE('',#170,#168,#88,.T.);
#211=EDGE_CURVE('',#169,#170,#89,.T.);
#212=EDGE_CURVE('',#171,#169,#143,.T.);
#213=EDGE_CURVE('',#172,#170,#144,.T.);
#214=EDGE_CURVE('',#171,#172,#90,.T.);
#215=EDGE_CURVE('',#173,#171,#91,.T.);
#216=EDGE_CURVE('',#174,#172,#92,.T.);
#217=EDGE_CURVE('',#173,#174,#93,.T.);
#218=EDGE_CURVE('',#175,#173,#145,.T.);
#219=EDGE_CURVE('',#176,#174,#146,.T.);
#220=EDGE_CURVE('',#175,#176,#94,.T.);
#221=EDGE_CURVE('',#177,#175,#95,.T.);
#222=EDGE_CURVE('',#178,#176,#96,.T.);
#223=EDGE_CURVE('',#177,#178,#97,.T.);
#224=EDGE_CURVE('',#179,#177,#147,.T.);
#225=EDGE_CURVE('',#180,#178,#148,.T.);
#226=EDGE_CURVE('',#179,#180,#98,.T.);
#227=EDGE_CURVE('',#166,#179,#99,.T.);
#228=EDGE_CURVE('',#167,#180,#100,.T.);
#229=ORIENTED_EDGE('',*,*,#181,.F.);
#230=ORIENTED_EDGE('',*,*,#182,.T.);
#231=ORIENTED_EDGE('',*,*,#183,.F.);
#232=ORIENTED_EDGE('',*,*,#184,.F.);
#233=ORIENTED_EDGE('',*,*,#182,.F.);
#234=ORIENTED_EDGE('',*,*,#185,.F.);
#235=ORIENTED_EDGE('',*,*,#186,.T.);
#236=ORIENTED_EDGE('',*,*,#187,.F.);
#237=ORIENTED_EDGE('',*,*,#188,.F.);
#238=ORIENTED_EDGE('',*,*,#186,.F.);
#239=ORIENTED_EDGE('',*,*,#189,.F.);
#240=ORIENTED_EDGE('',*,*,#190,.T.);
#241=ORIENTED_EDGE('',*,*,#191,.F.);
#242=ORIENTED_EDGE('',*,*,#192,.F.);
#243=ORIENTED_EDGE('',*,*,#190,.F.);
#244=ORIENTED_EDGE('',*,*,#193,.F.);
#245=ORIENTED_EDGE('',*,*,#194,.T.);
#246=ORIENTED_EDGE('',*,*,#195,.F.);
#247=ORIENTED_EDGE('',*,*,#196,.F.);
#248=ORIENTED_EDGE('',*,*,#194,.F.);
#249=ORIENTED_EDGE('',*,*,#183,.T.);
#250=ORIENTED_EDGE('',*,*,#184,.T.);
#251=ORIENTED_EDGE('',*,*,#197,.T.);
#252=ORIENTED_EDGE('',*,*,#198,.F.);
#253=ORIENTED_EDGE('',*,*,#197,.F.);
#254=ORIENTED_EDGE('',*,*,#191,.T.);
#255=ORIENTED_EDGE('',*,*,#192,.T.);
#256=ORIENTED_EDGE('',*,*,#199,.T.);
#257=ORIENTED_EDGE('',*,*,#200,.F.);
#258=ORIENTED_EDGE('',*,*,#199,.F.);
#259=ORIENTED_EDGE('',*,*,#187,.T.);
#260=ORIENTED_EDGE('',*,*,#188,.T.);
#261=ORIENTED_EDGE('',*,*,#201,.T.);
#262=ORIENTED_EDGE('',*,*,#202,.F.);
#263=ORIENTED_EDGE('',*,*,#201,.F.);
#264=ORIENTED_EDGE('',*,*,#195,.T.);
#265=ORIENTED_EDGE('',*,*,#196,.T.);
#266=ORIENTED_EDGE('',*,*,#203,.T.);
#267=ORIENTED_EDGE('',*,*,#204,.F.);
#268=ORIENTED_EDGE('',*,*,#203,.F.);
#269=ORIENTED_EDGE('',*,*,#205,.T.);
#270=ORIENTED_EDGE('',*,*,#206,.T.);
#271=ORIENTED_EDGE('',*,*,#207,.F.);
#272=ORIENTED_EDGE('',*,*,#208,.F.);
#273=ORIENTED_EDGE('',*,*,#209,.T.);
#274=ORIENTED_EDGE('',*,*,#208,.T.);
#275=ORIENTED_EDGE('',*,*,#210,.F.);
#276=ORIENTED_EDGE('',*,*,#211,.F.);
#277=ORIENTED_EDGE('',*,*,#212,.T.);
#278=ORIENTED_EDGE('',*,*,#211,.T.);
#279=ORIENTED_EDGE('',*,*,#213,.F.);
#280=ORIENTED_EDGE('',*,*,#214,.F.);
#281=ORIENTED_EDGE('',*,*,#215,.T.);
#282=ORIENTED_EDGE('',*,*,#214,.T.);
#283=ORIENTED_EDGE('',*,*,#216,.F.);
#284=ORIENTED_EDGE('',*,*,#217,.F.);
#285=ORIENTED_EDGE('',*,*,#218,.T.);
#286=ORIENTED_EDGE('',*,*,#217,.T.);
#287=ORIENTED_EDGE('',*,*,#219,.F.);
#288=ORIENTED_EDGE('',*,*,#220,.F.);
#289=ORIENTED_EDGE('',*,*,#221,.T.);
#290=ORIENTED_EDGE('',*,*,#220,.T.);
#291=ORIENTED_EDGE('',*,*,#222,.F.);
#292=ORIENTED_EDGE('',*,*,#223,.F.);
#293=ORIENTED_EDGE('',*,*,#224,.T.);
#294=ORIENTED_EDGE('',*,*,#223,.T.);
#295=ORIENTED_EDGE('',*,*,#225,.F.);
#296=ORIENTED_EDGE('',*,*,#226,.F.);
#297=ORIENTED_EDGE('',*,*,#227,.T.);
#298=ORIENTED_EDGE('',*,*,#226,.T.);
#299=ORIENTED_EDGE('',*,*,#228,.F.);
#300=ORIENTED_EDGE('',*,*,#206,.F.);
#301=ORIENTED_EDGE('',*,*,#228,.T.);
#302=ORIENTED_EDGE('',*,*,#225,.T.);
#303=ORIENTED_EDGE('',*,*,#222,.T.);
#304=ORIENTED_EDGE('',*,*,#219,.T.);
#305=ORIENTED_EDGE('',*,*,#216,.T.);
#306=ORIENTED_EDGE('',*,*,#213,.T.);
#307=ORIENTED_EDGE('',*,*,#210,.T.);
#308=ORIENTED_EDGE('',*,*,#207,.T.);
#309=ORIENTED_EDGE('',*,*,#198,.T.);
#310=ORIENTED_EDGE('',*,*,#200,.T.);
#311=ORIENTED_EDGE('',*,*,#202,.T.);
#312=ORIENTED_EDGE('',*,*,#204,.T.);
#313=ORIENTED_EDGE('',*,*,#227,.F.);
#314=ORIENTED_EDGE('',*,*,#205,.F.);
#315=ORIENTED_EDGE('',*,*,#209,.F.);
#316=ORIENTED_EDGE('',*,*,#212,.F.);
#317=ORIENTED_EDGE('',*,*,#215,.F.);
#318=ORIENTED_EDGE('',*,*,#218,.F.);
#319=ORIENTED_EDGE('',*,*,#221,.F.);
#320=ORIENTED_EDGE('',*,*,#224,.F.);
#321=ORIENTED_EDGE('',*,*,#181,.T.);
#322=ORIENTED_EDGE('',*,*,#185,.T.);
#323=ORIENTED_EDGE('',*,*,#189,.T.);
#324=ORIENTED_EDGE('',*,*,#193,.T.);
#325=CYLINDRICAL_SURFACE('',#374,4.25);
#326=CYLINDRICAL_SURFACE('',#378,4.25);
#327=CYLINDRICAL_SURFACE('',#382,4.24999999999999);
#328=CYLINDRICAL_SURFACE('',#386,4.25);
#329=CYLINDRICAL_SURFACE('',#398,0.999997999999986);
#330=CYLINDRICAL_SURFACE('',#402,0.999997999999986);
#331=CYLINDRICAL_SURFACE('',#406,0.999997999999986);
#332=CYLINDRICAL_SURFACE('',#410,0.999997999999986);
#333=ADVANCED_FACE('',(#33),#325,.F.);
#334=ADVANCED_FACE('',(#34),#326,.F.);
#335=ADVANCED_FACE('',(#35),#327,.F.);
#336=ADVANCED_FACE('',(#36),#328,.F.);
#337=ADVANCED_FACE('',(#37),#29,.F.);
#338=ADVANCED_FACE('',(#38),#30,.F.);
#339=ADVANCED_FACE('',(#39),#31,.F.);
#340=ADVANCED_FACE('',(#40),#32,.F.);
#341=ADVANCED_FACE('',(#41),#329,.T.);
#342=ADVANCED_FACE('',(#42),#23,.T.);
#343=ADVANCED_FACE('',(#43),#330,.T.);
#344=ADVANCED_FACE('',(#44),#24,.T.);
#345=ADVANCED_FACE('',(#45),#331,.T.);
#346=ADVANCED_FACE('',(#46),#25,.T.);
#347=ADVANCED_FACE('',(#47),#332,.T.);
#348=ADVANCED_FACE('',(#48),#26,.T.);
#349=ADVANCED_FACE('',(#49,#15,#16,#17,#18),#27,.T.);
#350=ADVANCED_FACE('',(#50,#19,#20,#21,#22),#28,.F.);
#351=CLOSED_SHELL('',(#333,#334,#335,#336,#337,#338,#339,#340,#341,#342,
#343,#344,#345,#346,#347,#348,#349,#350));
#352=DERIVED_UNIT_ELEMENT(#355,1.);
#353=DERIVED_UNIT_ELEMENT(#630,-3.);
#354=DIMENSIONAL_EXPONENTS(1.,0.,0.,0.,0.,0.,0.);
#355=(
CONVERSION_BASED_UNIT('gram',#357)
MASS_UNIT()
NAMED_UNIT(#354)
);
#356=(
MASS_UNIT()
NAMED_UNIT(*)
SI_UNIT(.KILO.,.GRAM.)
);
#357=MASS_MEASURE_WITH_UNIT(MASS_MEASURE(0.001),#356);
#358=DERIVED_UNIT((#352,#353));
#359=MEASURE_REPRESENTATION_ITEM('density measure',
POSITIVE_RATIO_MEASURE(7.85),#358);
#360=PROPERTY_DEFINITION_REPRESENTATION(#365,#362);
#361=PROPERTY_DEFINITION_REPRESENTATION(#366,#363);
#362=REPRESENTATION('material name',(#364),#627);
#363=REPRESENTATION('density',(#359),#627);
#364=DESCRIPTIVE_REPRESENTATION_ITEM('Acciaio generico (Ferro)',
'Acciaio generico (Ferro)');
#365=PROPERTY_DEFINITION('material property','material name',#637);
#366=PROPERTY_DEFINITION('material property','density of part',#637);
#367=DATE_TIME_ROLE('creation_date');
#368=APPLIED_DATE_AND_TIME_ASSIGNMENT(#369,#367,(#637));
#369=DATE_AND_TIME(#370,#371);
#370=CALENDAR_DATE(2015,16,6);
#371=LOCAL_TIME(0,0,0.,#372);
#372=COORDINATED_UNIVERSAL_TIME_OFFSET(0,0,.BEHIND.);
#373=AXIS2_PLACEMENT_3D('placement',#526,#416,#417);
#374=AXIS2_PLACEMENT_3D('',#527,#418,#419);
#375=AXIS2_PLACEMENT_3D('',#529,#420,#421);
#376=AXIS2_PLACEMENT_3D('',#533,#423,#424);
#377=AXIS2_PLACEMENT_3D('',#534,#425,#426);
#378=AXIS2_PLACEMENT_3D('',#535,#427,#428);
#379=AXIS2_PLACEMENT_3D('',#537,#429,#430);
#380=AXIS2_PLACEMENT_3D('',#541,#432,#433);
#381=AXIS2_PLACEMENT_3D('',#542,#434,#435);
#382=AXIS2_PLACEMENT_3D('',#543,#436,#437);
#383=AXIS2_PLACEMENT_3D('',#545,#438,#439);
#384=AXIS2_PLACEMENT_3D('',#549,#441,#442);
#385=AXIS2_PLACEMENT_3D('',#550,#443,#444);
#386=AXIS2_PLACEMENT_3D('',#551,#445,#446);
#387=AXIS2_PLACEMENT_3D('',#553,#447,#448);
#388=AXIS2_PLACEMENT_3D('',#557,#450,#451);
#389=AXIS2_PLACEMENT_3D('',#558,#452,#453);
#390=AXIS2_PLACEMENT_3D('',#559,#454,#455);
#391=AXIS2_PLACEMENT_3D('',#562,#457,#458);
#392=AXIS2_PLACEMENT_3D('',#563,#459,#460);
#393=AXIS2_PLACEMENT_3D('',#566,#462,#463);
#394=AXIS2_PLACEMENT_3D('',#567,#464,#465);
#395=AXIS2_PLACEMENT_3D('',#570,#467,#468);
#396=AXIS2_PLACEMENT_3D('',#571,#469,#470);
#397=AXIS2_PLACEMENT_3D('',#574,#472,#473);
#398=AXIS2_PLACEMENT_3D('',#575,#474,#475);
#399=AXIS2_PLACEMENT_3D('',#578,#476,#477);
#400=AXIS2_PLACEMENT_3D('',#582,#479,#480);
#401=AXIS2_PLACEMENT_3D('',#584,#482,#483);
#402=AXIS2_PLACEMENT_3D('',#590,#487,#488);
#403=AXIS2_PLACEMENT_3D('',#592,#489,#490);
#404=AXIS2_PLACEMENT_3D('',#594,#491,#492);
#405=AXIS2_PLACEMENT_3D('',#596,#494,#495);
#406=AXIS2_PLACEMENT_3D('',#602,#499,#500);
#407=AXIS2_PLACEMENT_3D('',#604,#501,#502);
#408=AXIS2_PLACEMENT_3D('',#606,#503,#504);
#409=AXIS2_PLACEMENT_3D('',#608,#506,#507);
#410=AXIS2_PLACEMENT_3D('',#614,#511,#512);
#411=AXIS2_PLACEMENT_3D('',#616,#513,#514);
#412=AXIS2_PLACEMENT_3D('',#618,#515,#516);
#413=AXIS2_PLACEMENT_3D('',#620,#518,#519);
#414=AXIS2_PLACEMENT_3D('',#623,#522,#523);
#415=AXIS2_PLACEMENT_3D('',#624,#524,#525);
#416=DIRECTION('axis',(0.,0.,1.));
#417=DIRECTION('refdir',(1.,0.,0.));
#418=DIRECTION('center_axis',(0.,0.,1.));
#419=DIRECTION('ref_axis',(-1.,0.,0.));
#420=DIRECTION('center_axis',(0.,0.,1.));
#421=DIRECTION('ref_axis',(-1.,0.,0.));
#422=DIRECTION('',(0.,0.,1.));
#423=DIRECTION('center_axis',(0.,0.,-1.));
#424=DIRECTION('ref_axis',(-1.,0.,0.));
#425=DIRECTION('center_axis',(0.,0.,-1.));
#426=DIRECTION('ref_axis',(-1.,0.,0.));
#427=DIRECTION('center_axis',(0.,0.,1.));
#428=DIRECTION('ref_axis',(-1.,0.,0.));
#429=DIRECTION('center_axis',(0.,0.,1.));
#430=DIRECTION('ref_axis',(-1.,0.,0.));
#431=DIRECTION('',(0.,0.,1.));
#432=DIRECTION('center_axis',(0.,0.,-1.));
#433=DIRECTION('ref_axis',(-1.,0.,0.));
#434=DIRECTION('center_axis',(0.,0.,-1.));
#435=DIRECTION('ref_axis',(-1.,0.,0.));
#436=DIRECTION('center_axis',(0.,0.,1.));
#437=DIRECTION('ref_axis',(-1.,0.,0.));
#438=DIRECTION('center_axis',(0.,0.,1.));
#439=DIRECTION('ref_axis',(-1.,0.,0.));
#440=DIRECTION('',(0.,0.,1.));
#441=DIRECTION('center_axis',(0.,0.,-1.));
#442=DIRECTION('ref_axis',(-1.,0.,0.));
#443=DIRECTION('center_axis',(0.,0.,-1.));
#444=DIRECTION('ref_axis',(-1.,0.,0.));
#445=DIRECTION('center_axis',(0.,0.,1.));
#446=DIRECTION('ref_axis',(-1.,0.,0.));
#447=DIRECTION('center_axis',(0.,0.,1.));
#448=DIRECTION('ref_axis',(-1.,0.,0.));
#449=DIRECTION('',(0.,0.,1.));
#450=DIRECTION('center_axis',(0.,0.,-1.));
#451=DIRECTION('ref_axis',(-1.,0.,0.));
#452=DIRECTION('center_axis',(0.,0.,-1.));
#453=DIRECTION('ref_axis',(-1.,0.,0.));
#454=DIRECTION('center_axis',(0.,0.,1.));
#455=DIRECTION('ref_axis',(1.,0.,0.));
#456=DIRECTION('',(-0.707106781186547,-8.65956056235493E-17,0.707106781186547));
#457=DIRECTION('center_axis',(0.,0.,-1.));
#458=DIRECTION('ref_axis',(1.,0.,0.));
#459=DIRECTION('center_axis',(0.,0.,1.));
#460=DIRECTION('ref_axis',(1.,0.,0.));
#461=DIRECTION('',(-0.707106781186547,-8.65956056235493E-17,0.707106781186547));
#462=DIRECTION('center_axis',(0.,0.,-1.));
#463=DIRECTION('ref_axis',(1.,0.,0.));
#464=DIRECTION('center_axis',(0.,0.,1.));
#465=DIRECTION('ref_axis',(1.,0.,0.));
#466=DIRECTION('',(-0.707106781186547,-8.65956056235493E-17,0.707106781186547));
#467=DIRECTION('center_axis',(0.,0.,-1.));
#468=DIRECTION('ref_axis',(1.,0.,0.));
#469=DIRECTION('center_axis',(0.,0.,1.));
#470=DIRECTION('ref_axis',(1.,0.,0.));
#471=DIRECTION('',(-0.707106781186547,-8.65956056235493E-17,0.707106781186547));
#472=DIRECTION('center_axis',(0.,0.,-1.));
#473=DIRECTION('ref_axis',(1.,0.,0.));
#474=DIRECTION('center_axis',(0.,0.,1.));
#475=DIRECTION('ref_axis',(-2.84217662739388E-13,1.,0.));
#476=DIRECTION('center_axis',(0.,0.,1.));
#477=DIRECTION('ref_axis',(-2.84217662739388E-13,1.,0.));
#478=DIRECTION('',(0.,0.,1.));
#479=DIRECTION('center_axis',(0.,0.,1.));
#480=DIRECTION('ref_axis',(-2.84217662739388E-13,1.,0.));
#481=DIRECTION('',(0.,0.,1.));
#482=DIRECTION('center_axis',(0.,1.,0.));
#483=DIRECTION('ref_axis',(-1.,0.,0.));
#484=DIRECTION('',(-1.,0.,0.));
#485=DIRECTION('',(-1.,0.,0.));
#486=DIRECTION('',(0.,0.,1.));
#487=DIRECTION('center_axis',(0.,0.,1.));
#488=DIRECTION('ref_axis',(1.,0.,0.));
#489=DIRECTION('center_axis',(0.,0.,1.));
#490=DIRECTION('ref_axis',(1.,0.,0.));
#491=DIRECTION('center_axis',(0.,0.,1.));
#492=DIRECTION('ref_axis',(1.,0.,0.));
#493=DIRECTION('',(0.,0.,1.));
#494=DIRECTION('center_axis',(1.,1.74010813922061E-14,0.));
#495=DIRECTION('ref_axis',(-1.74010813922061E-14,1.,0.));
#496=DIRECTION('',(-1.74010813922061E-14,1.,0.));
#497=DIRECTION('',(-1.74010813922061E-14,1.,0.));
#498=DIRECTION('',(0.,0.,1.));
#499=DIRECTION('center_axis',(0.,0.,1.));
#500=DIRECTION('ref_axis',(0.,-1.,0.));
#501=DIRECTION('center_axis',(0.,0.,1.));
#502=DIRECTION('ref_axis',(0.,-1.,0.));
#503=DIRECTION('center_axis',(0.,0.,1.));
#504=DIRECTION('ref_axis',(0.,-1.,0.));
#505=DIRECTION('',(0.,0.,1.));
#506=DIRECTION('center_axis',(0.,-1.,0.));
#507=DIRECTION('ref_axis',(1.,0.,0.));
#508=DIRECTION('',(1.,0.,0.));
#509=DIRECTION('',(1.,0.,0.));
#510=DIRECTION('',(0.,0.,1.));
#511=DIRECTION('center_axis',(0.,0.,1.));
#512=DIRECTION('ref_axis',(-1.,7.1054415684837E-13,0.));
#513=DIRECTION('center_axis',(0.,0.,1.));
#514=DIRECTION('ref_axis',(-1.,7.1054415684837E-13,0.));
#515=DIRECTION('center_axis',(0.,0.,1.));
#516=DIRECTION('ref_axis',(-1.,7.1054415684837E-13,0.));
#517=DIRECTION('',(0.,0.,1.));
#518=DIRECTION('center_axis',(-1.,0.,0.));
#519=DIRECTION('ref_axis',(0.,-1.,0.));
#520=DIRECTION('',(0.,-1.,0.));
#521=DIRECTION('',(0.,-1.,0.));
#522=DIRECTION('center_axis',(0.,0.,1.));
#523=DIRECTION('ref_axis',(1.,0.,0.));
#524=DIRECTION('center_axis',(0.,0.,1.));
#525=DIRECTION('ref_axis',(1.,0.,0.));
#526=CARTESIAN_POINT('',(0.,0.,0.));
#527=CARTESIAN_POINT('Origin',(5.99999998485146E-5,7.99999996736744E-5,
-1.));
#528=CARTESIAN_POINT('',(4.25005999999985,7.99999996741949E-5,-1.));
#529=CARTESIAN_POINT('Origin',(5.99999998485146E-5,7.99999996736744E-5,
-1.));
#530=CARTESIAN_POINT('',(4.25005999999985,7.99999996741949E-5,-0.749999999999998));
#531=CARTESIAN_POINT('',(4.25005999999985,7.99999996741949E-5,-1.));
#532=CARTESIAN_POINT('',(-4.24994000000016,7.99999996736744E-5,-0.75));
#533=CARTESIAN_POINT('Origin',(5.99999998485146E-5,7.99999996736744E-5,
-0.749999999999998));
#534=CARTESIAN_POINT('Origin',(5.99999998485146E-5,7.99999996736744E-5,
-0.749999999999998));
#535=CARTESIAN_POINT('Origin',(9.99993999999849,39.9998799999989,-1.));
#536=CARTESIAN_POINT('',(14.2499399999985,39.9998799999989,-1.));
#537=CARTESIAN_POINT('Origin',(9.99993999999849,39.9998799999989,-1.));
#538=CARTESIAN_POINT('',(14.2499399999985,39.9998799999989,-0.750000000000001));
#539=CARTESIAN_POINT('',(14.2499399999985,39.9998799999989,-1.));
#540=CARTESIAN_POINT('',(5.74993999999849,39.9998799999989,-0.75));
#541=CARTESIAN_POINT('Origin',(9.99993999999849,39.9998799999989,-0.750000000000001));
#542=CARTESIAN_POINT('Origin',(9.99993999999849,39.9998799999989,-0.750000000000001));
#543=CARTESIAN_POINT('Origin',(5.99999998485146E-5,-19.9999200000003,-1.));
#544=CARTESIAN_POINT('',(4.25005999999984,-19.9999200000003,-1.));
#545=CARTESIAN_POINT('Origin',(5.99999998485146E-5,-19.9999200000003,-1.));
#546=CARTESIAN_POINT('',(4.25005999999984,-19.9999200000003,-0.750000000000006));
#547=CARTESIAN_POINT('',(4.25005999999984,-19.9999200000003,-1.));
#548=CARTESIAN_POINT('',(-4.24994000000015,-19.9999200000003,-0.75));
#549=CARTESIAN_POINT('Origin',(5.99999998485146E-5,-19.9999200000003,-0.750000000000006));
#550=CARTESIAN_POINT('Origin',(5.99999998485146E-5,-19.9999200000003,-0.750000000000006));
#551=CARTESIAN_POINT('Origin',(-9.99994000000015,39.9998799999989,-1.));
#552=CARTESIAN_POINT('',(-5.74994000000015,39.9998799999989,-1.));
#553=CARTESIAN_POINT('Origin',(-9.99994000000015,39.9998799999989,-1.));
#554=CARTESIAN_POINT('',(-5.74994000000015,39.9998799999989,-0.750000000000001));
#555=CARTESIAN_POINT('',(-5.74994000000015,39.9998799999989,-1.));
#556=CARTESIAN_POINT('',(-14.2499400000002,39.9998799999989,-0.75));
#557=CARTESIAN_POINT('Origin',(-9.99994000000015,39.9998799999989,-0.750000000000001));
#558=CARTESIAN_POINT('Origin',(-9.99994000000015,39.9998799999989,-0.750000000000001));
#559=CARTESIAN_POINT('Origin',(5.99999998463475E-5,7.9999999671454E-5,1.625));
#560=CARTESIAN_POINT('',(-8.99994000000016,7.99999996703518E-5,4.));
#561=CARTESIAN_POINT('',(-6.62494000000016,7.99999996706427E-5,1.625));
#562=CARTESIAN_POINT('Origin',(5.99999998463475E-5,7.9999999671454E-5,4.));
#563=CARTESIAN_POINT('Origin',(5.99999998463475E-5,-19.9999200000003,1.625));
#564=CARTESIAN_POINT('',(-8.99994000000016,-19.9999200000003,4.));
#565=CARTESIAN_POINT('',(-6.62494000000016,-19.9999200000003,1.625));
#566=CARTESIAN_POINT('Origin',(5.99999998463475E-5,-19.9999200000003,4.));
#567=CARTESIAN_POINT('Origin',(9.99993999999849,39.9998799999989,1.625));
#568=CARTESIAN_POINT('',(0.999939999998489,39.9998799999989,4.));
#569=CARTESIAN_POINT('',(3.37493999999849,39.9998799999989,1.625));
#570=CARTESIAN_POINT('Origin',(9.99993999999849,39.9998799999989,4.));
#571=CARTESIAN_POINT('Origin',(-9.99994000000015,39.9998799999989,1.625));
#572=CARTESIAN_POINT('',(-18.9999400000002,39.9998799999989,4.));
#573=CARTESIAN_POINT('',(-16.6249400000002,39.9998799999989,1.625));
#574=CARTESIAN_POINT('Origin',(-9.99994000000015,39.9998799999989,4.));
#575=CARTESIAN_POINT('Origin',(-28.9999420000001,58.999881999999,0.));
#576=CARTESIAN_POINT('',(-28.9999420000004,59.9998799999989,-1.));
#577=CARTESIAN_POINT('',(-29.9999400000002,58.999882,-1.));
#578=CARTESIAN_POINT('Origin',(-28.9999420000001,58.999881999999,-1.));
#579=CARTESIAN_POINT('',(-29.9999400000002,58.999882,4.));
#580=CARTESIAN_POINT('',(-29.9999400000002,58.999882,0.));
#581=CARTESIAN_POINT('',(-28.9999420000004,59.9998799999989,4.));
#582=CARTESIAN_POINT('Origin',(-28.9999420000001,58.999881999999,4.));
#583=CARTESIAN_POINT('',(-28.9999420000004,59.9998799999989,0.));
#584=CARTESIAN_POINT('Origin',(28.9999419999992,59.9998799999989,0.));
#585=CARTESIAN_POINT('',(28.9999419999992,59.9998799999989,-1.));
#586=CARTESIAN_POINT('',(28.9999419999992,59.9998799999989,-1.));
#587=CARTESIAN_POINT('',(28.9999419999992,59.9998799999989,4.));
#588=CARTESIAN_POINT('',(28.9999419999992,59.9998799999989,4.));
#589=CARTESIAN_POINT('',(28.9999419999992,59.9998799999989,0.));
#590=CARTESIAN_POINT('Origin',(28.9999419999992,58.999882,0.));
#591=CARTESIAN_POINT('',(29.9999399999982,58.999882,-1.));
#592=CARTESIAN_POINT('Origin',(28.9999419999992,58.999882,-1.));
#593=CARTESIAN_POINT('',(29.9999399999982,58.999882,4.));
#594=CARTESIAN_POINT('Origin',(28.9999419999992,58.999882,4.));
#595=CARTESIAN_POINT('',(29.9999399999982,58.999882,0.));
#596=CARTESIAN_POINT('Origin',(29.9999399999999,-38.9999219999997,0.));
#597=CARTESIAN_POINT('',(29.9999399999999,-38.9999219999997,-1.));
#598=CARTESIAN_POINT('',(29.9999399999999,-38.9999219999997,-1.));
#599=CARTESIAN_POINT('',(29.9999399999999,-38.9999219999997,4.));
#600=CARTESIAN_POINT('',(29.9999399999999,-38.9999219999997,4.));
#601=CARTESIAN_POINT('',(29.9999399999999,-38.9999219999997,0.));
#602=CARTESIAN_POINT('Origin',(28.9999419999992,-38.9999219999997,0.));
#603=CARTESIAN_POINT('',(28.9999419999992,-39.9999200000003,-1.));
#604=CARTESIAN_POINT('Origin',(28.9999419999992,-38.9999219999997,-1.));
#605=CARTESIAN_POINT('',(28.9999419999992,-39.9999200000003,4.));
#606=CARTESIAN_POINT('Origin',(28.9999419999992,-38.9999219999997,4.));
#607=CARTESIAN_POINT('',(28.9999419999992,-39.9999200000003,0.));
#608=CARTESIAN_POINT('Origin',(-28.9999420000004,-39.9999200000003,0.));
#609=CARTESIAN_POINT('',(-28.9999420000004,-39.9999200000003,-1.));
#610=CARTESIAN_POINT('',(-28.9999420000004,-39.9999200000003,-1.));
#611=CARTESIAN_POINT('',(-28.9999420000004,-39.9999200000003,4.));
#612=CARTESIAN_POINT('',(-28.9999420000004,-39.9999200000003,4.));
#613=CARTESIAN_POINT('',(-28.9999420000004,-39.9999200000003,0.));
#614=CARTESIAN_POINT('Origin',(-28.9999420000001,-38.9999220000004,0.));
#615=CARTESIAN_POINT('',(-29.9999400000002,-38.9999219999997,-1.));
#616=CARTESIAN_POINT('Origin',(-28.9999420000001,-38.9999220000004,-1.));
#617=CARTESIAN_POINT('',(-29.9999400000002,-38.9999219999997,4.));
#618=CARTESIAN_POINT('Origin',(-28.9999420000001,-38.9999220000004,4.));
#619=CARTESIAN_POINT('',(-29.9999400000002,-38.9999219999997,0.));
#620=CARTESIAN_POINT('Origin',(-29.9999400000002,58.999882,0.));
#621=CARTESIAN_POINT('',(-29.9999400000002,58.999882,-1.));
#622=CARTESIAN_POINT('',(-29.9999400000002,58.999882,4.));
#623=CARTESIAN_POINT('Origin',(-5.08428742818108E-13,9.9999799999996,4.));
#624=CARTESIAN_POINT('Origin',(-5.08428742818108E-13,9.9999799999996,-1.));
#625=UNCERTAINTY_MEASURE_WITH_UNIT(LENGTH_MEASURE(0.01),#629,
'DISTANCE_ACCURACY_VALUE',
'Maximum model space distance between geometric entities at asserted c
onnectivities');
#626=UNCERTAINTY_MEASURE_WITH_UNIT(LENGTH_MEASURE(0.01),#629,
'DISTANCE_ACCURACY_VALUE',
'Maximum model space distance between geometric entities at asserted c
onnectivities');
#627=(
GEOMETRIC_REPRESENTATION_CONTEXT(3)
GLOBAL_UNCERTAINTY_ASSIGNED_CONTEXT((#625))
GLOBAL_UNIT_ASSIGNED_CONTEXT((#629,#631,#632))
REPRESENTATION_CONTEXT('','3D')
);
#628=(
GEOMETRIC_REPRESENTATION_CONTEXT(3)
GLOBAL_UNCERTAINTY_ASSIGNED_CONTEXT((#626))
GLOBAL_UNIT_ASSIGNED_CONTEXT((#629,#631,#632))
REPRESENTATION_CONTEXT('','3D')
);
#629=(
LENGTH_UNIT()
NAMED_UNIT(*)
SI_UNIT(.MILLI.,.METRE.)
);
#630=(
LENGTH_UNIT()
NAMED_UNIT(*)
SI_UNIT(.CENTI.,.METRE.)
);
#631=(
NAMED_UNIT(*)
PLANE_ANGLE_UNIT()
SI_UNIT($,.RADIAN.)
);
#632=(
NAMED_UNIT(*)
SI_UNIT($,.STERADIAN.)
SOLID_ANGLE_UNIT()
);
#633=SHAPE_DEFINITION_REPRESENTATION(#634,#635);
#634=PRODUCT_DEFINITION_SHAPE('',$,#637);
#635=SHAPE_REPRESENTATION('',(#373),#627);
#636=PRODUCT_DEFINITION_CONTEXT('part definition',#641,'design');
#637=PRODUCT_DEFINITION('DPSXX0000959','DPSXX0000959',#638,#636);
#638=PRODUCT_DEFINITION_FORMATION('C',$,#643);
#639=PRODUCT_RELATED_PRODUCT_CATEGORY('DPSXX0000959','DPSXX0000959',(#643));
#640=APPLICATION_PROTOCOL_DEFINITION('international standard',
'automotive_design',2009,#641);
#641=APPLICATION_CONTEXT(
'Core Data for Automotive Mechanical Design Process');
#642=PRODUCT_CONTEXT('part definition',#641,'mechanical');
#643=PRODUCT('DPSXX0000959','DPSXX0000959',
'PIATTO DI FISS. PALO 60X60 A TRAVERSA',(#642));
#644=PRESENTATION_STYLE_ASSIGNMENT((#645));
#645=SURFACE_STYLE_USAGE(.BOTH.,#648);
#646=SURFACE_STYLE_RENDERING_WITH_PROPERTIES($,#652,(#647));
#647=SURFACE_STYLE_TRANSPARENT(0.);
#648=SURFACE_SIDE_STYLE('',(#649,#646));
#649=SURFACE_STYLE_FILL_AREA(#650);
#650=FILL_AREA_STYLE('',(#651));
#651=FILL_AREA_STYLE_COLOUR('',#652);
#652=COLOUR_RGB('',0.83921568627451,0.886274509803922,0.854901960784314);
ENDSEC;
END-ISO-10303-21;
