  0
SECTION
  2
HEADER
  9
$ACADVER
  1
AC1015
  9
$ACADMAINTVER
 70
    20
  9
$DWGCODEPAGE
  3
ANSI_1252
  9
$INSBASE
 10
0.0
 20
0.0
 30
0.0
  9
$EXTMIN
 10
-17.60000000000005
 20
-20.10000000000001
 30
0.0
  9
$EXTMAX
 10
187.8935454802096
 20
278.6292181450142
 30
0.0
  9
$LIMMIN
 10
0.0
 20
0.0
  9
$LIMMAX
 10
210.0
 20
297.0
  9
$ORTHOMODE
 70
     0
  9
$REGENMODE
 70
     1
  9
$FILLMODE
 70
     1
  9
$QTEXTMODE
 70
     0
  9
$MIRRTEXT
 70
     1
  9
$LTSCALE
 40
25.4
  9
$ATTMODE
 70
     1
  9
$TEXTSIZE
 40
0.2
  9
$TRACEWID
 40
0.05
  9
$TEXTSTYLE
  7
Standard
  9
$CLAYER
  8
0
  9
$CELTYPE
  6
CONTINUOUS
  9
$CECOLOR
 62
   256
  9
$CELTSCALE
 40
1.0
  9
$DISPSILH
 70
     0
  9
$DIMSCALE
 40
1.0
  9
$DIMASZ
 40
0.18
  9
$DIMEXO
 40
0.0625
  9
$DIMDLI
 40
0.38
  9
$DIMRND
 40
0.0
  9
$DIMDLE
 40
0.0
  9
$DIMEXE
 40
0.18
  9
$DIMTP
 40
0.0
  9
$DIMTM
 40
0.0
  9
$DIMTXT
 40
0.18
  9
$DIMCEN
 40
0.09
  9
$DIMTSZ
 40
0.0
  9
$DIMTOL
 70
     0
  9
$DIMLIM
 70
     0
  9
$DIMTIH
 70
     1
  9
$DIMTOH
 70
     1
  9
$DIMSE1
 70
     0
  9
$DIMSE2
 70
     0
  9
$DIMTAD
 70
     0
  9
$DIMZIN
 70
     0
  9
$DIMBLK
  1

  9
$DIMASO
 70
     1
  9
$DIMSHO
 70
     1
  9
$DIMPOST
  1

  9
$DIMAPOST
  1

  9
$DIMALT
 70
     0
  9
$DIMALTD
 70
     2
  9
$DIMALTF
 40
25.4
  9
$DIMLFAC
 40
1.0
  9
$DIMTOFL
 70
     0
  9
$DIMTVP
 40
0.0
  9
$DIMTIX
 70
     0
  9
$DIMSOXD
 70
     0
  9
$DIMSAH
 70
     0
  9
$DIMBLK1
  1

  9
$DIMBLK2
  1

  9
$DIMSTYLE
  2
Standard
  9
$DIMCLRD
 70
     0
  9
$DIMCLRE
 70
     0
  9
$DIMCLRT
 70
     0
  9
$DIMTFAC
 40
1.0
  9
$DIMGAP
 40
0.09
  9
$DIMJUST
 70
     0
  9
$DIMSD1
 70
     0
  9
$DIMSD2
 70
     0
  9
$DIMTOLJ
 70
     1
  9
$DIMTZIN
 70
     0
  9
$DIMALTZ
 70
     0
  9
$DIMALTTZ
 70
     0
  9
$DIMUPT
 70
     0
  9
$DIMDEC
 70
     4
  9
$DIMTDEC
 70
     4
  9
$DIMALTU
 70
     2
  9
$DIMALTTD
 70
     2
  9
$DIMTXSTY
  7
Standard
  9
$DIMAUNIT
 70
     0
  9
$DIMADEC
 70
     0
  9
$DIMALTRND
 40
0.0
  9
$DIMAZIN
 70
     0
  9
$DIMDSEP
 70
    46
  9
$DIMATFIT
 70
     3
  9
$DIMFRAC
 70
     0
  9
$DIMLDRBLK
  1

  9
$DIMLUNIT
 70
     2
  9
$DIMLWD
 70
    -2
  9
$DIMLWE
 70
    -2
  9
$DIMTMOVE
 70
     2
  9
$LUNITS
 70
     2
  9
$LUPREC
 70
     4
  9
$SKETCHINC
 40
0.1
  9
$FILLETRAD
 40
0.0
  9
$AUNITS
 70
     0
  9
$AUPREC
 70
     0
  9
$MENU
  1
acad
  9
$ELEVATION
 40
0.0
  9
$PELEVATION
 40
0.0
  9
$THICKNESS
 40
0.0
  9
$LIMCHECK
 70
     0
  9
$CHAMFERA
 40
0.0
  9
$CHAMFERB
 40
0.0
  9
$CHAMFERC
 40
0.0
  9
$CHAMFERD
 40
0.0
  9
$SKPOLY
 70
     0
  9
$TDCREATE
 40
2444975.041666666
  9
$TDUCREATE
 40
2444975.000000000
  9
$TDUPDATE
 40
2455637.485348415
  9
$TDUUPDATE
 40
2455637.443681748
  9
$TDINDWG
 40
0.0008309954
  9
$TDUSRTIMER
 40
0.0008309954
  9
$USRTIMER
 70
     1
  9
$ANGBASE
 50
0.0
  9
$ANGDIR
 70
     0
  9
$PDMODE
 70
     0
  9
$PDSIZE
 40
0.0
  9
$PLINEWID
 40
0.0
  9
$SPLFRAME
 70
     0
  9
$SPLINETYPE
 70
     6
  9
$SPLINESEGS
 70
     8
  9
$HANDSEED
  5
302
  9
$SURFTAB1
 70
     6
  9
$SURFTAB2
 70
     6
  9
$SURFTYPE
 70
     6
  9
$SURFU
 70
     6
  9
$SURFV
 70
     6
  9
$UCSBASE
  2

  9
$UCSNAME
  2

  9
$UCSORG
 10
0.0
 20
0.0
 30
0.0
  9
$UCSXDIR
 10
1.0
 20
0.0
 30
0.0
  9
$UCSYDIR
 10
0.0
 20
1.0
 30
0.0
  9
$UCSORTHOREF
  2

  9
$UCSORTHOVIEW
 70
     0
  9
$UCSORGTOP
 10
0.0
 20
0.0
 30
0.0
  9
$UCSORGBOTTOM
 10
0.0
 20
0.0
 30
0.0
  9
$UCSORGLEFT
 10
0.0
 20
0.0
 30
0.0
  9
$UCSORGRIGHT
 10
0.0
 20
0.0
 30
0.0
  9
$UCSORGFRONT
 10
0.0
 20
0.0
 30
0.0
  9
$UCSORGBACK
 10
0.0
 20
0.0
 30
0.0
  9
$PUCSBASE
  2

  9
$PUCSNAME
  2

  9
$PUCSORG
 10
0.0
 20
0.0
 30
0.0
  9
$PUCSXDIR
 10
1.0
 20
0.0
 30
0.0
  9
$PUCSYDIR
 10
0.0
 20
1.0
 30
0.0
  9
$PUCSORTHOREF
  2

  9
$PUCSORTHOVIEW
 70
     0
  9
$PUCSORGTOP
 10
0.0
 20
0.0
 30
0.0
  9
$PUCSORGBOTTOM
 10
0.0
 20
0.0
 30
0.0
  9
$PUCSORGLEFT
 10
0.0
 20
0.0
 30
0.0
  9
$PUCSORGRIGHT
 10
0.0
 20
0.0
 30
0.0
  9
$PUCSORGFRONT
 10
0.0
 20
0.0
 30
0.0
  9
$PUCSORGBACK
 10
0.0
 20
0.0
 30
0.0
  9
$USERI1
 70
     0
  9
$USERI2
 70
     0
  9
$USERI3
 70
     0
  9
$USERI4
 70
     0
  9
$USERI5
 70
     0
  9
$USERR1
 40
0.0
  9
$USERR2
 40
0.0
  9
$USERR3
 40
0.0
  9
$USERR4
 40
0.0
  9
$USERR5
 40
0.0
  9
$WORLDVIEW
 70
     1
  9
$SHADEDGE
 70
     3
  9
$SHADEDIF
 70
    70
  9
$TILEMODE
 70
     1
  9
$MAXACTVP
 70
    16
  9
$PINSBASE
 10
0.0
 20
0.0
 30
0.0
  9
$PLIMCHECK
 70
     0
  9
$PEXTMIN
 10
1.000000000000000E+20
 20
1.000000000000000E+20
 30
1.000000000000000E+20
  9
$PEXTMAX
 10
-1.000000000000000E+20
 20
-1.000000000000000E+20
 30
-1.000000000000000E+20
  9
$PLIMMIN
 10
0.0
 20
0.0
  9
$PLIMMAX
 10
12.0
 20
9.0
  9
$UNITMODE
 70
     0
  9
$VISRETAIN
 70
     0
  9
$PLINEGEN
 70
     1
  9
$PSLTSCALE
 70
     0
  9
$TREEDEPTH
 70
  3020
  9
$CMLSTYLE
  2
Standard
  9
$CMLJUST
 70
     0
  9
$CMLSCALE
 40
1.0
  9
$PROXYGRAPHICS
 70
     1
  9
$MEASUREMENT
 70
     0
  9
$CELWEIGHT
370
    -1
  9
$ENDCAPS
280
     0
  9
$JOINSTYLE
280
     0
  9
$LWDISPLAY
290
     0
  9
$INSUNITS
 70
     0
  9
$HYPERLINKBASE
  1

  9
$STYLESHEET
  1

  9
$XEDIT
290
     1
  9
$CEPSNTYPE
380
     0
  9
$PSTYLEMODE
290
     1
  9
$FINGERPRINTGUID
  2
{E46CF7F3-B190-4A5E-95ED-2061E1866623}
  9
$VERSIONGUID
  2
{2D9E0EEA-863D-4B6E-B2D1-5E5CB94A789F}
  9
$EXTNAMES
290
     1
  9
$PSVPSCALE
 40
0.0
  9
$OLESTARTUP
290
     0
  0
ENDSEC
  0
SECTION
  2
CLASSES
  0
CLASS
  1
ACDBDICTIONARYWDFLT
  2
AcDbDictionaryWithDefault
  3
ObjectDBX Classes
 90
        0
280
     0
281
     0
  0
CLASS
  1
MATERIAL
  2
AcDbMaterial
  3
ObjectDBX Classes
 90
     1153
280
     0
281
     0
  0
CLASS
  1
VISUALSTYLE
  2
AcDbVisualStyle
  3
ObjectDBX Classes
 90
     4095
280
     0
281
     0
  0
CLASS
  1
SCALE
  2
AcDbScale
  3
ObjectDBX Classes
 90
     1153
280
     0
281
     0
  0
CLASS
  1
TABLESTYLE
  2
AcDbTableStyle
  3
ObjectDBX Classes
 90
     4095
280
     0
281
     0
  0
CLASS
  1
MLEADERSTYLE
  2
AcDbMLeaderStyle
  3
ACDB_MLEADERSTYLE_CLASS
 90
     4095
280
     0
281
     0
  0
CLASS
  1
AEC_REFEDIT_STATUS_TRACKER
  2
AecDbRefEditStatusTracker
  3
AecArchBase60|Product Desc: Autodesk Architectural Desktop 2007 |Company: Autodesk,Inc. |WEB Address: www.autodesk.com
 90
      129
280
     0
281
     0
  0
CLASS
  1
NPOCOLLECTION
  2
AcDbImpNonPersistentObjectsCollection
  3
ObjectDBX Classes
 90
     1153
280
     0
281
     0
  0
CLASS
  1
SORTENTSTABLE
  2
AcDbSortentsTable
  3
ObjectDBX Classes
 90
        0
280
     0
281
     0
  0
CLASS
  1
DICTIONARYVAR
  2
AcDbDictionaryVar
  3
ObjectDBX Classes
 90
        0
280
     0
281
     0
  0
CLASS
  1
CELLSTYLEMAP
  2
AcDbCellStyleMap
  3
ObjectDBX Classes
 90
     1152
280
     0
281
     0
  0
CLASS
  1
ACDBPLACEHOLDER
  2
AcDbPlaceHolder
  3
ObjectDBX Classes
 90
        0
280
     0
281
     0
  0
CLASS
  1
LAYOUT
  2
AcDbLayout
  3
ObjectDBX Classes
 90
        0
280
     0
281
     0
  0
ENDSEC
  0
SECTION
  2
TABLES
  0
TABLE
  2
VPORT
  5
1D8
330
0
100
AcDbSymbolTable
 70
     1
  0
VPORT
  5
256
330
1D8
100
AcDbSymbolTableRecord
100
AcDbViewportTableRecord
  2
*ACTIVE
 70
     0
 10
0.0
 20
0.0
 11
1.0
 21
1.0
 12
201.0789787941177
 22
148.5
 13
0.0
 23
0.0
 14
1.0
 24
1.0
 15
0.0
 25
0.0
 16
0.0
 26
0.0
 36
1.0
 17
0.0
 27
0.0
 37
0.0
 40
297.0
 41
2.251225490196078
 42
50.0
 43
0.0
 44
0.0
 50
0.0
 51
0.0
 71
     0
 72
   100
 73
     1
 74
     1
 75
     0
 76
     0
 77
     0
 78
     0
281
     0
 65
     1
110
0.0
120
0.0
130
0.0
111
1.0
121
0.0
131
0.0
112
0.0
122
1.0
132
0.0
 79
     0
146
0.0
  0
ENDTAB
  0
TABLE
  2
LTYPE
  5
1D5
330
0
100
AcDbSymbolTable
 70
     6
  0
LTYPE
  5
22A
330
1D5
100
AcDbSymbolTableRecord
100
AcDbLinetypeTableRecord
  2
ByBlock
 70
     0
  3

 72
    65
 73
     0
 40
0.0
  0
LTYPE
  5
22B
330
1D5
100
AcDbSymbolTableRecord
100
AcDbLinetypeTableRecord
  2
ByLayer
 70
     0
  3

 72
    65
 73
     0
 40
0.0
  0
LTYPE
  5
22C
330
1D5
100
AcDbSymbolTableRecord
100
AcDbLinetypeTableRecord
  2
CONTINUOUS
 70
     0
  3
Solid line
 72
    65
 73
     0
 40
0.0
  0
LTYPE
  5
251
330
1D5
100
AcDbSymbolTableRecord
100
AcDbLinetypeTableRecord
  2
HIDDEN2
 70
     0
  3
_ _ _ _ _ _ _ _ _ _ _ _ _ _ _ _ _ _ _ _ _ _ _ _
 72
    65
 73
     2
 40
0.1875
 49
0.125
 74
     0
 49
-0.0625
 74
     0
  0
LTYPE
  5
252
330
1D5
100
AcDbSymbolTableRecord
100
AcDbLinetypeTableRecord
  2
CENTER2
 70
     0
  3
___ _ ___ _ ___ _ ___ _ ___ _ ___ _ ___ _ ___ _
 72
    65
 73
     4
 40
1.125
 49
0.75
 74
     0
 49
-0.125
 74
     0
 49
0.125
 74
     0
 49
-0.125
 74
     0
  0
LTYPE
  5
253
330
1D5
100
AcDbSymbolTableRecord
100
AcDbLinetypeTableRecord
  2
PHANTOM2
 70
     0
  3
___ _ _ ___ _ _ ___ _ _ ___ _ _ ___ _ _ ___ _ _
 72
    65
 73
     6
 40
1.25
 49
0.625
 74
     0
 49
-0.125
 74
     0
 49
0.125
 74
     0
 49
-0.125
 74
     0
 49
0.125
 74
     0
 49
-0.125
 74
     0
  0
LTYPE
  5
254
330
1D5
100
AcDbSymbolTableRecord
100
AcDbLinetypeTableRecord
  2
DOT2
 70
     0
  3
...............................................
 72
    65
 73
     2
 40
0.125
 49
0.0
 74
     0
 49
-0.125
 74
     0
  0
LTYPE
  5
255
330
1D5
100
AcDbSymbolTableRecord
100
AcDbLinetypeTableRecord
  2
DASHDOT2
 70
     0
  3
_._._._._._._._._._._._._._._._._._._._._._._._
 72
    65
 73
     4
 40
0.5
 49
0.25
 74
     0
 49
-0.125
 74
     0
 49
0.0
 74
     0
 49
-0.125
 74
     0
  0
ENDTAB
  0
TABLE
  2
LAYER
  5
1D2
330
0
100
AcDbSymbolTable
 70
     7
  0
LAYER
  5
224
330
1D2
100
AcDbSymbolTableRecord
100
AcDbLayerTableRecord
  2
0
 70
     0
 62
     7
  6
CONTINUOUS
370
    -3
390
1DF
  0
LAYER
  5
257
330
1D2
100
AcDbSymbolTableRecord
100
AcDbLayerTableRecord
  2
DEFAULT
 70
     0
 62
     7
  6
CONTINUOUS
370
    -3
390
1DF
  0
LAYER
  5
258
330
1D2
100
AcDbSymbolTableRecord
100
AcDbLayerTableRecord
  2
PREDEFINITO
 70
     0
 62
     7
  6
CONTINUOUS
370
    -3
390
1DF
  0
LAYER
  5
259
330
1D2
100
AcDbSymbolTableRecord
100
AcDbLayerTableRecord
  2
TESTI
 70
     0
 62
     7
  6
CONTINUOUS
370
    -3
390
1DF
  0
LAYER
  5
25A
330
1D2
100
AcDbSymbolTableRecord
100
AcDbLayerTableRecord
  2
AUTO_-_HIDE
 70
     0
 62
     7
  6
CONTINUOUS
370
    -3
390
1DF
  0
LAYER
  5
25B
330
1D2
100
AcDbSymbolTableRecord
100
AcDbLayerTableRecord
  2
DV1_PREDEFINITO
 70
     0
 62
     7
  6
CONTINUOUS
370
    -3
390
1DF
  0
LAYER
  5
25C
330
1D2
100
AcDbSymbolTableRecord
100
AcDbLayerTableRecord
  2
DV2_PREDEFINITO
 70
     0
 62
     7
  6
CONTINUOUS
370
    -3
390
1DF
  0
ENDTAB
  0
TABLE
  2
STYLE
  5
1D3
330
0
100
AcDbSymbolTable
 70
     3
  0
STYLE
  5
225
330
1D3
100
AcDbSymbolTableRecord
100
AcDbTextStyleTableRecord
  2
Standard
 70
     0
 40
0.0
 41
1.0
 50
0.0
 71
     0
 42
0.2
  3
txt
  4

  0
STYLE
  5
229
330
1D3
100
AcDbSymbolTableRecord
100
AcDbTextStyleTableRecord
  2
seansi_ttf
 70
     0
 40
0.0
 41
1.0
 50
0.0
 71
     0
 42
0.2
  3
seansi.ttf
  4

1001
AcadAnnotative
1000
AnnotativeData
1002
{
1070
     1
1070
     1
1002
}
  0
STYLE
  5
250
330
1D3
100
AcDbSymbolTableRecord
100
AcDbTextStyleTableRecord
  2
semeca1_ttf
 70
     0
 40
0.0
 41
1.0
 50
0.0
 71
     0
 42
0.2
  3
semeca1.ttf
  4

  0
ENDTAB
  0
TABLE
  2
VIEW
  5
1D6
330
0
100
AcDbSymbolTable
 70
     0
  0
ENDTAB
  0
TABLE
  2
UCS
  5
1D7
330
0
100
AcDbSymbolTable
 70
     0
  0
ENDTAB
  0
TABLE
  2
APPID
  5
1D9
330
0
100
AcDbSymbolTable
 70
     4
  0
APPID
  5
226
330
1D9
100
AcDbSymbolTableRecord
100
AcDbRegAppTableRecord
  2
ACAD
 70
     0
  0
APPID
  5
22D
330
1D9
100
AcDbSymbolTableRecord
100
AcDbRegAppTableRecord
  2
AcadAnnotative
 70
     0
  0
APPID
  5
2B6
330
1D9
100
AcDbSymbolTableRecord
100
AcDbRegAppTableRecord
  2
DCO15
 70
     0
  0
APPID
  5
2FD
330
1D9
100
AcDbSymbolTableRecord
100
AcDbRegAppTableRecord
  2
ACAD_MLEADERVER
 70
     0
  0
ENDTAB
  0
TABLE
  2
DIMSTYLE
  5
1DA
330
0
100
AcDbSymbolTable
 70
     2
100
AcDbDimStyleTable
 71
     0
  0
DIMSTYLE
105
227
330
1DA
100
AcDbSymbolTableRecord
100
AcDbDimStyleTableRecord
  2
Standard
 70
     0
279
     2
340
225
  0
DIMSTYLE
105
228
330
1DA
100
AcDbSymbolTableRecord
100
AcDbDimStyleTableRecord
  2
Annotative
 70
     0
340
225
1001
AcadAnnotative
1000
AnnotativeData
1002
{
1070
     1
1070
     1
1002
}
  0
ENDTAB
  0
TABLE
  2
BLOCK_RECORD
  5
1D1
330
0
100
AcDbSymbolTable
 70
    17
  0
BLOCK_RECORD
  5
23B
102
{ACAD_XDICTIONARY
360
268
102
}
330
1D1
100
AcDbSymbolTableRecord
100
AcDbBlockTableRecord
  2
*Model_Space
340
23E
  0
BLOCK_RECORD
  5
237
330
1D1
100
AcDbSymbolTableRecord
100
AcDbBlockTableRecord
  2
*Paper_Space
340
23A
  0
BLOCK_RECORD
  5
23F
330
1D1
100
AcDbSymbolTableRecord
100
AcDbBlockTableRecord
  2
SE0
340
0
  0
BLOCK_RECORD
  5
240
330
1D1
100
AcDbSymbolTableRecord
100
AcDbBlockTableRecord
  2
SE1
340
0
102
{BLKREFS
331
61
102
}
  0
BLOCK_RECORD
  5
241
330
1D1
100
AcDbSymbolTableRecord
100
AcDbBlockTableRecord
  2
SE2
340
0
  0
BLOCK_RECORD
  5
242
330
1D1
100
AcDbSymbolTableRecord
100
AcDbBlockTableRecord
  2
SE3
340
0
  0
BLOCK_RECORD
  5
243
330
1D1
100
AcDbSymbolTableRecord
100
AcDbBlockTableRecord
  2
SE4
340
0
  0
BLOCK_RECORD
  5
244
330
1D1
100
AcDbSymbolTableRecord
100
AcDbBlockTableRecord
  2
SE5
340
0
  0
BLOCK_RECORD
  5
245
330
1D1
100
AcDbSymbolTableRecord
100
AcDbBlockTableRecord
  2
SE6
340
0
  0
BLOCK_RECORD
  5
246
330
1D1
100
AcDbSymbolTableRecord
100
AcDbBlockTableRecord
  2
SE7
340
0
  0
BLOCK_RECORD
  5
247
330
1D1
100
AcDbSymbolTableRecord
100
AcDbBlockTableRecord
  2
SE8
340
0
  0
BLOCK_RECORD
  5
248
330
1D1
100
AcDbSymbolTableRecord
100
AcDbBlockTableRecord
  2
SE9
340
0
  0
BLOCK_RECORD
  5
249
330
1D1
100
AcDbSymbolTableRecord
100
AcDbBlockTableRecord
  2
SE10
340
0
  0
BLOCK_RECORD
  5
24A
330
1D1
100
AcDbSymbolTableRecord
100
AcDbBlockTableRecord
  2
SE11
340
0
  0
BLOCK_RECORD
  5
24B
330
1D1
100
AcDbSymbolTableRecord
100
AcDbBlockTableRecord
  2
SE12
340
0
  0
BLOCK_RECORD
  5
24C
330
1D1
100
AcDbSymbolTableRecord
100
AcDbBlockTableRecord
  2
SE13
340
0
  0
BLOCK_RECORD
  5
24D
330
1D1
100
AcDbSymbolTableRecord
100
AcDbBlockTableRecord
  2
SE14
340
0
  0
BLOCK_RECORD
  5
24E
330
1D1
100
AcDbSymbolTableRecord
100
AcDbBlockTableRecord
  2
SE15
340
0
  0
BLOCK_RECORD
  5
24F
330
1D1
100
AcDbSymbolTableRecord
100
AcDbBlockTableRecord
  2
SE16
340
0
  0
ENDTAB
  0
ENDSEC
  0
SECTION
  2
BLOCKS
  0
BLOCK
  5
25F
330
23B
100
AcDbEntity
  8
0
100
AcDbBlockBegin
  2
*Model_Space
 70
     0
 10
0.0
 20
0.0
 30
0.0
  3
*Model_Space
  1

  0
ENDBLK
  5
260
330
23B
100
AcDbEntity
  8
0
100
AcDbBlockEnd
  0
BLOCK
  5
25D
330
237
100
AcDbEntity
 67
     1
  8
0
100
AcDbBlockBegin
  2
*Paper_Space
 70
     0
 10
0.0
 20
0.0
 30
0.0
  3
*Paper_Space
  1

  0
ENDBLK
  5
25E
330
237
100
AcDbEntity
 67
     1
  8
0
100
AcDbBlockEnd
  0
BLOCK
  5
7E
330
23F
100
AcDbEntity
  8
0
 62
     1
100
AcDbBlockBegin
  2
SE0
 70
     0
 10
0.0
 20
0.0
 30
0.0
  3
SE0
  1

  0
LWPOLYLINE
  5
7F
330
23F
100
AcDbEntity
  8
0
  6
Continuous
 62
     7
100
AcDbPolyline
 90
        6
 70
     0
 43
0.0
 10
141.9997762596754
 20
237.1807225109466
 10
142.4997762596754
 20
236.6807225109466
 10
143.4997762596754
 20
237.6807225109466
 10
144.4997762596754
 20
236.6807225109466
 10
145.4997762596754
 20
237.6807225109466
 10
145.9997762596754
 20
237.1807225109466
  0
LWPOLYLINE
  5
87
330
23F
100
AcDbEntity
  8
0
  6
Continuous
 62
     7
100
AcDbPolyline
 90
        6
 70
     0
 43
0.0
 10
141.9997762596754
 20
242.1807225109466
 10
142.4997762596754
 20
241.6807225109466
 10
143.4997762596754
 20
242.6807225109466
 10
144.4997762596754
 20
241.6807225109466
 10
145.4997762596754
 20
242.6807225109466
 10
145.9997762596754
 20
242.1807225109466
  0
ENDBLK
  5
8F
330
23F
100
AcDbEntity
  8
0
  6
Continuous
 62
     7
100
AcDbBlockEnd
  0
BLOCK
  5
DF
330
240
100
AcDbEntity
  8
DEFAULT
 62
     1
100
AcDbBlockBegin
  2
SE1
 70
     0
 10
0.0
 20
0.0
 30
0.0
  3
SE1
  1

  0
ENDBLK
  5
E0
330
240
100
AcDbEntity
  8
DEFAULT
 62
     1
100
AcDbBlockEnd
  0
BLOCK
  5
90
330
241
100
AcDbEntity
  8
DEFAULT
 62
     1
100
AcDbBlockBegin
  2
SE2
 70
     0
 10
0.0
 20
0.0
 30
0.0
  3
SE2
  1

  0
LINE
  5
91
330
241
100
AcDbEntity
  8
DV1_PREDEFINITO
  6
Continuous
 62
     7
100
AcDbLine
 10
80.59977625967539
 20
181.3083218175185
 30
0.0
 11
80.59977625967539
 21
229.3083218175185
 31
0.0
  0
LINE
  5
92
330
241
100
AcDbEntity
  8
DV1_PREDEFINITO
  6
Continuous
 62
     7
100
AcDbLine
 10
80.59977625967539
 20
229.3083218175185
 30
0.0
 11
78.59977625967538
 21
229.3083218175185
 31
0.0
  0
LINE
  5
93
330
241
100
AcDbEntity
  8
DV1_PREDEFINITO
  6
Continuous
 62
     7
100
AcDbLine
 10
68.59977625967538
 20
223.5348191256222
 30
0.0
 11
68.59977625967538
 21
187.0818245094147
 31
0.0
  0
LINE
  5
94
330
241
100
AcDbEntity
  8
DV1_PREDEFINITO
  6
Continuous
 62
     7
100
AcDbLine
 10
78.59977625967538
 20
181.3083218175185
 30
0.0
 11
80.59977625967539
 21
181.3083218175185
 31
0.0
  0
LINE
  5
95
330
241
100
AcDbEntity
  8
DV1_PREDEFINITO
  6
Continuous
 62
     7
100
AcDbLine
 10
80.59977625967539
 20
185.3083218175185
 30
0.0
 11
110.5997762596754
 21
185.3083218175185
 31
0.0
  0
LINE
  5
96
330
241
100
AcDbEntity
  8
DV1_PREDEFINITO
  6
Continuous
 62
     7
100
AcDbLine
 10
116.5997762596754
 20
189.2083218175185
 30
0.0
 11
116.5997762596754
 21
221.4083218175185
 31
0.0
  0
LINE
  5
97
330
241
100
AcDbEntity
  8
DV1_PREDEFINITO
  6
Continuous
 62
     7
100
AcDbLine
 10
110.5997762596754
 20
225.3083218175185
 30
0.0
 11
80.59977625967537
 21
225.3083218175185
 31
0.0
  0
LINE
  5
98
330
241
100
AcDbEntity
  8
DV1_PREDEFINITO
  6
Continuous
 62
     7
100
AcDbLine
 10
80.59977625967539
 20
225.3083218175185
 30
0.0
 11
80.59977625967539
 21
185.3083218175185
 31
0.0
  0
LINE
  5
99
330
241
100
AcDbEntity
  8
DV1_PREDEFINITO
  6
Continuous
 62
     7
100
AcDbLine
 10
78.59977625967538
 20
181.3083218175185
 30
0.0
 11
78.59977625967538
 21
229.3083218175185
 31
0.0
  0
LINE
  5
9A
330
241
100
AcDbEntity
  8
DV1_PREDEFINITO
  6
Continuous
 62
     7
100
AcDbLine
 10
78.59977625967538
 20
229.3083218175185
 30
0.0
 11
68.59977625967538
 21
223.5348191256222
 31
0.0
  0
LINE
  5
9B
330
241
100
AcDbEntity
  8
DV1_PREDEFINITO
  6
Continuous
 62
     7
100
AcDbLine
 10
78.59977625967538
 20
181.3083218175185
 30
0.0
 11
68.59977625967538
 21
187.0818245094147
 31
0.0
  0
LINE
  5
9C
330
241
100
AcDbEntity
  8
DV1_PREDEFINITO
  6
Continuous
 62
     7
100
AcDbLine
 10
110.5997762596754
 20
185.3083218175185
 30
0.0
 11
110.5997762596754
 21
225.3083218175185
 31
0.0
  0
LINE
  5
9D
330
241
100
AcDbEntity
  8
DV1_PREDEFINITO
  6
Continuous
 62
     7
100
AcDbLine
 10
116.5997762596754
 20
221.4083218175185
 30
0.0
 11
110.5997762596754
 21
221.4083218175185
 31
0.0
  0
LINE
  5
9E
330
241
100
AcDbEntity
  8
DV1_PREDEFINITO
  6
Continuous
 62
     7
100
AcDbLine
 10
110.5997762596754
 20
189.2083218175185
 30
0.0
 11
116.5997762596754
 21
189.2083218175185
 31
0.0
  0
LINE
  5
9F
330
241
100
AcDbEntity
  8
DV1_PREDEFINITO
  6
Continuous
 62
     7
100
AcDbLine
 10
116.5997762596754
 20
191.2083218175185
 30
0.0
 11
120.5997762596753
 21
191.2083218175185
 31
0.0
  0
LINE
  5
A0
330
241
100
AcDbEntity
  8
DV1_PREDEFINITO
  6
Continuous
 62
     7
100
AcDbLine
 10
120.5997762596753
 20
191.2083218175185
 30
0.0
 11
120.5997762596753
 21
220.3083218175185
 31
0.0
  0
LINE
  5
A1
330
241
100
AcDbEntity
  8
DV1_PREDEFINITO
  6
Continuous
 62
     7
100
AcDbLine
 10
116.5997762596754
 20
220.3083218175185
 30
0.0
 11
116.5997762596754
 21
191.2083218175185
 31
0.0
  0
LINE
  5
A2
330
241
100
AcDbEntity
  8
DV1_PREDEFINITO
  6
Continuous
 62
     7
100
AcDbLine
 10
124.5997762596754
 20
200.4185694523865
 30
0.0
 11
124.5997762596754
 21
210.1980741826506
 31
0.0
  0
LINE
  5
A3
330
241
100
AcDbEntity
  8
DV1_PREDEFINITO
  6
Continuous
 62
     7
100
AcDbLine
 10
122.3114725716529
 20
216.3083218175185
 30
0.0
 11
120.5997762596754
 21
216.3083218175185
 31
0.0
  0
LINE
  5
A4
330
241
100
AcDbEntity
  8
DV1_PREDEFINITO
  6
Continuous
 62
     7
100
AcDbLine
 10
120.5997762596753
 20
216.3083218175185
 30
0.0
 11
120.5997762596753
 21
194.3083218175185
 31
0.0
  0
LINE
  5
A5
330
241
100
AcDbEntity
  8
DV1_PREDEFINITO
  6
Continuous
 62
     7
100
AcDbLine
 10
120.5997762596753
 20
194.3083218175185
 30
0.0
 11
122.3114725716529
 21
194.3083218175185
 31
0.0
  0
LINE
  5
A6
330
241
100
AcDbEntity
  8
DV1_PREDEFINITO
  6
Continuous
 62
     7
100
AcDbLine
 10
124.5792495788956
 20
210.3699018598579
 30
0.0
 11
122.6909458908731
 21
216.0348129239253
 31
0.0
  0
LINE
  5
A7
330
241
100
AcDbEntity
  8
DV1_PREDEFINITO
  6
Continuous
 62
     7
100
AcDbLine
 10
124.5792495788956
 20
200.2467417751791
 30
0.0
 11
122.6909458908731
 21
194.5818307111117
 31
0.0
  0
ARC
  5
A8
330
241
100
AcDbEntity
  8
DV1_PREDEFINITO
  6
Continuous
 62
     7
100
AcDbCircle
 10
122.3114725716529
 20
215.9083218175185
 30
0.0
 40
0.4
100
AcDbArc
 50
18.4349488229233
 51
90.0
  0
ARC
  5
A9
330
241
100
AcDbEntity
  8
DV1_PREDEFINITO
  6
Continuous
 62
     7
100
AcDbCircle
 10
123.8703330632926
 20
210.1980741826506
 30
0.0
 40
0.7294431963827791
100
AcDbArc
 50
0.0
 51
13.62463820697491
  0
ARC
  5
AA
330
241
100
AcDbEntity
  8
DV1_PREDEFINITO
  6
Continuous
 62
     7
100
AcDbCircle
 10
123.8703330632926
 20
200.4185694523865
 30
0.0
 40
0.729443196382782
100
AcDbArc
 50
346.3753617930205
 51
360.0
  0
ARC
  5
AB
330
241
100
AcDbEntity
  8
DV1_PREDEFINITO
  6
Continuous
 62
     7
100
AcDbCircle
 10
122.3114725716529
 20
194.7083218175185
 30
0.0
 40
0.4
100
AcDbArc
 50
270.0
 51
341.5650511770806
  0
LINE
  5
AC
330
241
100
AcDbEntity
  8
DV1_PREDEFINITO
  6
Continuous
 62
     7
100
AcDbLine
 10
124.5997762596754
 20
200.3083218198299
 30
0.0
 11
128.2730564683544
 21
200.3083218198299
 31
0.0
  0
LINE
  5
AD
330
241
100
AcDbEntity
  8
DV1_PREDEFINITO
  6
Continuous
 62
     7
100
AcDbLine
 10
128.2730564677827
 20
210.3083218151549
 30
0.0
 11
124.5997762596754
 21
210.3083218151549
 31
0.0
  0
LINE
  5
AE
330
241
100
AcDbEntity
  8
DV1_PREDEFINITO
  6
Continuous
 62
     7
100
AcDbLine
 10
124.5997762596754
 20
210.3083218151549
 30
0.0
 11
124.5997762596754
 21
200.3083218198299
 31
0.0
  0
ARC
  5
AF
330
241
100
AcDbEntity
  8
DV1_PREDEFINITO
  6
Continuous
 62
     7
100
AcDbCircle
 10
117.3765612381173
 20
205.3083218168136
 30
0.0
 40
12.22595416365172
100
AcDbArc
 50
336.9367899962767
 51
23.06321001092233
  0
ARC
  5
B0
330
241
100
AcDbEntity
  8
DV1_PREDEFINITO
  6
Continuous
 62
     7
100
AcDbCircle
 10
128.2730564677827
 20
209.9083218151549
 30
0.0
 40
0.3999999999999995
100
AcDbArc
 50
28.27371361590409
 51
90.0
  0
ARC
  5
B1
330
241
100
AcDbEntity
  8
DV1_PREDEFINITO
  6
Continuous
 62
     7
100
AcDbCircle
 10
128.2730564683544
 20
200.7083218198299
 30
0.0
 40
0.3999999999999976
100
AcDbArc
 50
270.0
 51
331.7262863931906
  0
LINE
  5
B2
330
241
100
AcDbEntity
  8
DV1_PREDEFINITO
  6
Continuous
 62
     7
100
AcDbLine
 10
128.5797762545387
 20
205.5083218175961
 30
0.0
 11
128.5797762545387
 21
205.1083218175961
 31
0.0
  0
LINE
  5
B3
330
241
100
AcDbEntity
  8
DV1_PREDEFINITO
  6
Continuous
 62
     7
100
AcDbLine
 10
128.5797762545387
 20
205.1083218175961
 30
0.0
 11
129.6008794281853
 21
205.1083218175961
 31
0.0
  0
LINE
  5
B4
330
241
100
AcDbEntity
  8
DV1_PREDEFINITO
  6
Continuous
 62
     7
100
AcDbLine
 10
128.5797762545387
 20
205.5083218175961
 30
0.0
 11
129.6008794281597
 21
205.5083218175961
 31
0.0
  0
LINE
  5
B5
330
241
100
AcDbEntity
  8
DV1_PREDEFINITO
  6
Continuous
 62
     7
100
AcDbLine
 10
128.6228580575288
 20
205.6883291151746
 30
0.0
 11
129.5827204641308
 21
206.0037584860513
 31
0.0
  0
LINE
  5
B6
330
241
100
AcDbEntity
  8
DV1_PREDEFINITO
  6
Continuous
 62
     7
100
AcDbLine
 10
128.6228580575288
 20
204.9283145200176
 30
0.0
 11
129.5827204642183
 21
204.6128851491122
 31
0.0
  0
ARC
  5
B7
330
241
100
AcDbEntity
  8
DV1_PREDEFINITO
  6
Continuous
 62
     7
100
AcDbCircle
 10
128.7477358129022
 20
205.3083218175962
 30
0.0
 40
0.4
100
AcDbArc
 50
108.1915243984007
 51
251.8084756016018
  0
LINE
  5
B8
330
241
100
AcDbEntity
  8
DV1_PREDEFINITO
  6
CENTER2
 62
     2
100
AcDbLine
 10
61.59977625967537
 20
205.3083218175112
 30
0.0
 11
136.6025154017691
 21
205.308321817589
 31
0.0
  0
LINE
  5
B9
330
241
100
AcDbEntity
  8
DV1_PREDEFINITO
  6
Continuous
 62
     7
100
AcDbLine
 10
70.24280397640146
 20
158.6647913475094
 30
0.0
 11
70.24280397640146
 21
139.2483035085618
 31
0.0
  0
LINE
  5
BA
330
241
100
AcDbEntity
  8
DV1_PREDEFINITO
  6
Continuous
 62
     7
100
AcDbLine
 10
35.04280397640144
 20
158.6647913475094
 30
0.0
 11
35.04280397640144
 21
139.2483035085618
 31
0.0
  0
ARC
  5
BB
330
241
100
AcDbEntity
  8
DV1_PREDEFINITO
  6
Continuous
 62
     7
100
AcDbCircle
 10
52.64280397640145
 20
148.9565474280356
 30
0.0
 40
20.10000000000001
100
AcDbArc
 50
28.88133818184648
 51
151.1186618181535
  0
ARC
  5
BC
330
241
100
AcDbEntity
  8
DV1_PREDEFINITO
  6
Continuous
 62
     7
100
AcDbCircle
 10
52.64280397640145
 20
148.9565474280356
 30
0.0
 40
20.10000000000001
100
AcDbArc
 50
208.8813381818464
 51
331.1186618181536
  0
LINE
  5
BD
330
241
100
AcDbEntity
  8
DV1_PREDEFINITO
  6
Continuous
 62
     7
100
AcDbLine
 10
80.59977625967539
 20
215.0165657369923
 30
0.0
 11
110.5997762596754
 21
215.0165657369923
 31
0.0
  0
LINE
  5
BE
330
241
100
AcDbEntity
  8
DV1_PREDEFINITO
  6
Continuous
 62
     7
100
AcDbLine
 10
80.59977625967539
 20
195.6000778980447
 30
0.0
 11
110.5997762596754
 21
195.6000778980447
 31
0.0
  0
LINE
  5
BF
330
241
100
AcDbEntity
  8
DV1_PREDEFINITO
  6
Continuous
 62
     7
100
AcDbLine
 10
110.5997762596754
 20
215.0165657369923
 30
0.0
 11
80.59977625967537
 21
195.6000778980447
 31
0.0
  0
LINE
  5
C0
330
241
100
AcDbEntity
  8
DV1_PREDEFINITO
  6
Continuous
 62
     7
100
AcDbLine
 10
80.59977625967539
 20
215.0165657369923
 30
0.0
 11
110.5997762596754
 21
195.6000778980447
 31
0.0
  0
LINE
  5
C1
330
241
100
AcDbEntity
  8
DV1_PREDEFINITO
  6
Continuous
 62
     7
100
AcDbLine
 10
152.3785583419234
 20
151.2955815171658
 30
0.0
 11
152.3785583419234
 21
140.4955815171658
 31
0.0
  0
LINE
  5
C2
330
241
100
AcDbEntity
  8
DV1_PREDEFINITO
  6
Continuous
 62
     7
100
AcDbLine
 10
157.3785583419234
 20
135.4955815171658
 30
0.0
 11
168.1785583419234
 21
135.4955815171658
 31
0.0
  0
LINE
  5
C3
330
241
100
AcDbEntity
  8
DV1_PREDEFINITO
  6
Continuous
 62
     7
100
AcDbLine
 10
173.1785583419234
 20
140.4955815171658
 30
0.0
 11
173.1785583419234
 21
151.2955815171658
 31
0.0
  0
LINE
  5
C4
330
241
100
AcDbEntity
  8
DV1_PREDEFINITO
  6
Continuous
 62
     7
100
AcDbLine
 10
168.1785583419234
 20
156.2955815171658
 30
0.0
 11
157.3785583419234
 21
156.2955815171658
 31
0.0
  0
LINE
  5
C5
330
241
100
AcDbEntity
  8
DV1_PREDEFINITO
  6
Continuous
 62
     7
100
AcDbLine
 10
168.1785583419234
 20
156.2955815171658
 30
0.0
 11
168.1785583419234
 21
151.2955815171658
 31
0.0
  0
LINE
  5
C6
330
241
100
AcDbEntity
  8
DV1_PREDEFINITO
  6
Continuous
 62
     7
100
AcDbLine
 10
157.3785583419234
 20
156.2955815171658
 30
0.0
 11
157.3785583419234
 21
151.2955815171658
 31
0.0
  0
LINE
  5
C7
330
241
100
AcDbEntity
  8
DV1_PREDEFINITO
  6
Continuous
 62
     7
100
AcDbLine
 10
157.3785583419234
 20
156.2955815171658
 30
0.0
 11
168.1785583419234
 21
156.2955815171658
 31
0.0
  0
LINE
  5
C8
330
241
100
AcDbEntity
  8
DV1_PREDEFINITO
  6
Continuous
 62
     7
100
AcDbLine
 10
168.1785583419234
 20
135.4955815171658
 30
0.0
 11
157.3785583419234
 21
135.4955815171658
 31
0.0
  0
LINE
  5
C9
330
241
100
AcDbEntity
  8
DV1_PREDEFINITO
  6
Continuous
 62
     7
100
AcDbLine
 10
152.3785583419234
 20
151.2955815171658
 30
0.0
 11
157.3785583419234
 21
151.2955815171658
 31
0.0
  0
LINE
  5
CA
330
241
100
AcDbEntity
  8
DV1_PREDEFINITO
  6
Continuous
 62
     7
100
AcDbLine
 10
152.3785583419234
 20
140.4955815171658
 30
0.0
 11
157.3785583419234
 21
140.4955815171658
 31
0.0
  0
LINE
  5
CB
330
241
100
AcDbEntity
  8
DV1_PREDEFINITO
  6
Continuous
 62
     7
100
AcDbLine
 10
152.3785583419234
 20
140.4955815171658
 30
0.0
 11
152.3785583419234
 21
151.2955815171658
 31
0.0
  0
LINE
  5
CC
330
241
100
AcDbEntity
  8
DV1_PREDEFINITO
  6
Continuous
 62
     7
100
AcDbLine
 10
173.1785583419234
 20
151.2955815171658
 30
0.0
 11
173.1785583419234
 21
140.4955815171658
 31
0.0
  0
LINE
  5
CD
330
241
100
AcDbEntity
  8
DV1_PREDEFINITO
  6
Continuous
 62
     7
100
AcDbLine
 10
168.1785583419234
 20
140.4955815171658
 30
0.0
 11
168.1785583419234
 21
135.4955815171658
 31
0.0
  0
LINE
  5
CE
330
241
100
AcDbEntity
  8
DV1_PREDEFINITO
  6
Continuous
 62
     7
100
AcDbLine
 10
168.1785583419234
 20
151.2955815171658
 30
0.0
 11
173.1785583419234
 21
151.2955815171658
 31
0.0
  0
LINE
  5
CF
330
241
100
AcDbEntity
  8
DV1_PREDEFINITO
  6
Continuous
 62
     7
100
AcDbLine
 10
157.3785583419234
 20
140.4955815171658
 30
0.0
 11
157.3785583419234
 21
135.4955815171658
 31
0.0
  0
LINE
  5
D0
330
241
100
AcDbEntity
  8
DV1_PREDEFINITO
  6
Continuous
 62
     7
100
AcDbLine
 10
168.1785583419234
 20
140.4955815171658
 30
0.0
 11
173.1785583419234
 21
140.4955815171658
 31
0.0
  0
LINE
  5
D1
330
241
100
AcDbEntity
  8
DV1_PREDEFINITO
  6
Continuous
 62
     7
100
AcDbLine
 10
121.5997762596753
 20
225.3083218175185
 30
0.0
 11
140.9997762596753
 21
225.3083218175185
 31
0.0
  0
LINE
  5
D2
330
241
100
AcDbEntity
  8
DV1_PREDEFINITO
  6
Continuous
 62
     7
100
AcDbLine
 10
141.9997762596754
 20
226.3083218175185
 30
0.0
 11
141.9997762596754
 21
237.1807225109466
 31
0.0
  0
LINE
  5
D3
330
241
100
AcDbEntity
  8
DV1_PREDEFINITO
  6
Continuous
 62
     7
100
AcDbLine
 10
121.5997762596753
 20
221.3083218175185
 30
0.0
 11
140.9997762596753
 21
221.3083218175185
 31
0.0
  0
LINE
  5
D4
330
241
100
AcDbEntity
  8
DV1_PREDEFINITO
  6
Continuous
 62
     7
100
AcDbLine
 10
145.9997762596754
 20
226.3083218175185
 30
0.0
 11
145.9997762596754
 21
237.1807225109466
 31
0.0
  0
ARC
  5
D5
330
241
100
AcDbEntity
  8
DV1_PREDEFINITO
  6
Continuous
 62
     7
100
AcDbCircle
 10
121.5997762596753
 20
220.3083218175185
 30
0.0
 40
5.0
100
AcDbArc
 50
90.0
 51
180.0
  0
ARC
  5
D6
330
241
100
AcDbEntity
  8
DV1_PREDEFINITO
  6
Continuous
 62
     7
100
AcDbCircle
 10
121.5997762596753
 20
220.3083218175185
 30
0.0
 40
1.0
100
AcDbArc
 50
90.0
 51
180.0
  0
ARC
  5
D7
330
241
100
AcDbEntity
  8
DV1_PREDEFINITO
  6
Continuous
 62
     7
100
AcDbCircle
 10
140.9997762596753
 20
226.3083218175185
 30
0.0
 40
1.0
100
AcDbArc
 50
270.0
 51
360.0
  0
ARC
  5
D8
330
241
100
AcDbEntity
  8
DV1_PREDEFINITO
  6
Continuous
 62
     7
100
AcDbCircle
 10
140.9997762596753
 20
226.3083218175185
 30
0.0
 40
5.0
100
AcDbArc
 50
270.0
 51
360.0
  0
ENDBLK
  5
D9
330
241
100
AcDbEntity
  8
DV1_PREDEFINITO
  6
Continuous
 62
     7
100
AcDbBlockEnd
  0
BLOCK
  5
DA
330
242
100
AcDbEntity
  8
DEFAULT
 62
     1
100
AcDbBlockBegin
  2
SE3
 70
     0
 10
0.0
 20
0.0
 30
0.0
  3
SE3
  1

  0
LINE
  5
DB
330
242
100
AcDbEntity
  8
DV2_PREDEFINITO
  6
Continuous
 62
     7
100
AcDbLine
 10
141.9997762596754
 20
242.1807225109466
 30
0.0
 11
141.9997762596754
 21
254.1086408069895
 31
0.0
  0
LINE
  5
DC
330
242
100
AcDbEntity
  8
DV2_PREDEFINITO
  6
Continuous
 62
     7
100
AcDbLine
 10
145.9997762596754
 20
242.1807225109466
 30
0.0
 11
145.9997762596754
 21
254.1086408069895
 31
0.0
  0
LINE
  5
DD
330
242
100
AcDbEntity
  8
DV2_PREDEFINITO
  6
Continuous
 62
     7
100
AcDbLine
 10
145.9997762596754
 20
254.1086408069895
 30
0.0
 11
141.9997762596754
 21
254.1086408069895
 31
0.0
  0
ENDBLK
  5
DE
330
242
100
AcDbEntity
  8
DV2_PREDEFINITO
  6
Continuous
 62
     7
100
AcDbBlockEnd
  0
BLOCK
  5
E1
330
243
100
AcDbEntity
  8
DEFAULT
 62
     1
100
AcDbBlockBegin
  2
SE4
 70
     0
 10
0.0
 20
0.0
 30
0.0
  3
SE4
  1

  0
LWPOLYLINE
  5
E2
330
243
100
AcDbEntity
  8
DEFAULT
  6
Continuous
 62
     2
100
AcDbPolyline
 90
        4
 70
     0
 43
0.0
 10
77.09977615164196
 20
262.6284825125597
 10
80.59977625967539
 20
262.0451491612208
 10
77.09977615164196
 20
261.4618158098819
 10
77.09977615164196
 20
262.6284825125597
  0
LWPOLYLINE
  5
E8
330
243
100
AcDbEntity
  8
DEFAULT
  6
Continuous
 62
     2
100
AcDbPolyline
 90
        4
 70
     0
 43
0.0
 10
72.09977636770879
 20
262.6284825125597
 10
68.59977625967538
 20
262.0451491612208
 10
72.09977636770879
 20
261.4618158098819
 10
72.09977636770879
 20
262.6284825125597
  0
LINE
  5
EE
330
243
100
AcDbEntity
  8
DEFAULT
  6
Continuous
 62
     2
100
AcDbLine
 10
80.59977625967539
 20
217.6743082579192
 30
0.0
 11
80.59977625967539
 21
263.7951492152375
 31
0.0
  0
LINE
  5
EF
330
243
100
AcDbEntity
  8
DEFAULT
  6
Continuous
 62
     2
100
AcDbLine
 10
68.59977625967538
 20
217.3627920454046
 30
0.0
 11
68.59977625967538
 21
263.7951492152375
 31
0.0
  0
LINE
  5
F0
330
243
100
AcDbEntity
  8
DEFAULT
  6
Continuous
 62
     2
100
AcDbLine
 10
80.59977625967539
 20
262.0451491612208
 30
0.0
 11
68.59977615536725
 21
262.0451491612208
 31
0.0
  0
TEXT
  5
F1
330
243
100
AcDbEntity
  8
DEFAULT
  6
Continuous
 62
     2
100
AcDbText
 10
73.27276198951183
 20
262.9201491612208
 30
0.0
 40
3.5
  1
6
  7
seansi_ttf
 11
73.27276198951183
 21
266.4201491612208
 31
0.0
100
AcDbText
 73
     3
  0
ENDBLK
  5
F2
330
243
100
AcDbEntity
  8
DEFAULT
  6
Continuous
 62
     2
100
AcDbBlockEnd
  0
BLOCK
  5
F3
330
244
100
AcDbEntity
  8
DEFAULT
 62
     1
100
AcDbBlockBegin
  2
SE5
 70
     0
 10
0.0
 20
0.0
 30
0.0
  3
SE5
  1

  0
LWPOLYLINE
  5
F4
330
244
100
AcDbEntity
  8
DEFAULT
  6
Continuous
 62
     2
100
AcDbPolyline
 90
        4
 70
     0
 43
0.0
 10
84.0997763677088
 20
262.5811228969953
 10
80.59977625967539
 20
261.9977895456565
 10
84.0997763677088
 20
261.4144561943176
 10
84.0997763677088
 20
262.5811228969953
  0
LWPOLYLINE
  5
FA
330
244
100
AcDbEntity
  8
DEFAULT
  6
Continuous
 62
     2
100
AcDbPolyline
 90
        4
 70
     0
 43
0.0
 10
113.0997761516419
 20
262.5811228969953
 10
116.5997762596754
 20
261.9977895456565
 10
113.0997761516419
 20
261.4144561943176
 10
113.0997761516419
 20
262.5811228969953
  0
LINE
  5
100
330
244
100
AcDbEntity
  8
DEFAULT
  6
Continuous
 62
     2
100
AcDbLine
 10
80.59977625967539
 20
220.2747291663934
 30
0.0
 11
80.59977625967539
 21
263.7477895996732
 31
0.0
  0
LINE
  5
101
330
244
100
AcDbEntity
  8
DEFAULT
  6
Continuous
 62
     2
100
AcDbLine
 10
116.5997762596754
 20
202.7640309842226
 30
0.0
 11
116.5997762596754
 21
263.7477895996732
 31
0.0
  0
LINE
  5
102
330
244
100
AcDbEntity
  8
DEFAULT
  6
Continuous
 62
     2
100
AcDbLine
 10
80.59977625967539
 20
261.9977895456565
 30
0.0
 11
116.5997747099546
 21
261.9977895456565
 31
0.0
  0
TEXT
  5
103
330
244
100
AcDbEntity
  8
DEFAULT
  6
Continuous
 62
     2
100
AcDbText
 10
95.94574704879603
 20
262.8727895456565
 30
0.0
 40
3.5
  1
18
  7
seansi_ttf
 11
95.94574704879603
 21
266.3727895456565
 31
0.0
100
AcDbText
 73
     3
  0
ENDBLK
  5
104
330
244
100
AcDbEntity
  8
DEFAULT
  6
Continuous
 62
     2
100
AcDbBlockEnd
  0
BLOCK
  5
105
330
245
100
AcDbEntity
  8
DEFAULT
 62
     1
100
AcDbBlockBegin
  2
SE6
 70
     0
 10
0.0
 20
0.0
 30
0.0
  3
SE6
  1

  0
LWPOLYLINE
  5
106
330
245
100
AcDbEntity
  8
DEFAULT
  6
Continuous
 62
     2
100
AcDbPolyline
 90
        4
 70
     0
 43
0.0
 10
113.0997761516419
 20
162.7354145195844
 10
116.5997762596754
 20
163.3187478709233
 10
113.0997761516419
 20
163.9020812222622
 10
113.0997761516419
 20
162.7354145195844
  0
LWPOLYLINE
  5
10C
330
245
100
AcDbEntity
  8
DEFAULT
  6
Continuous
 62
     2
100
AcDbPolyline
 90
        4
 70
     0
 43
0.0
 10
124.0997763677088
 20
162.7354145195844
 10
120.5997762596753
 20
163.3187478709233
 10
124.0997763677088
 20
163.9020812222622
 10
124.0997763677088
 20
162.7354145195844
  0
LINE
  5
112
330
245
100
AcDbEntity
  8
DEFAULT
  6
Continuous
 62
     2
100
AcDbLine
 10
116.5997762596754
 20
192.2821855413168
 30
0.0
 11
116.5997762596754
 21
161.5687478169066
 31
0.0
  0
LINE
  5
113
330
245
100
AcDbEntity
  8
DEFAULT
  6
Continuous
 62
     2
100
AcDbLine
 10
120.5997762596753
 20
192.060442896542
 30
0.0
 11
120.5997762596753
 21
161.5687478169066
 31
0.0
  0
LINE
  5
114
330
245
100
AcDbEntity
  8
DEFAULT
  6
Continuous
 62
     2
100
AcDbLine
 10
109.5997760436085
 20
163.3187478709233
 30
0.0
 11
128.9253890878108
 21
163.3187478709233
 31
0.0
  0
TEXT
  5
115
330
245
100
AcDbEntity
  8
DEFAULT
  6
Continuous
 62
     2
100
AcDbText
 10
125.046360467985
 20
164.1937478709233
 30
0.0
 40
3.5
  1
2
  7
seansi_ttf
 11
125.046360467985
 21
167.6937478709233
 31
0.0
100
AcDbText
 73
     3
  0
ENDBLK
  5
116
330
245
100
AcDbEntity
  8
DEFAULT
  6
Continuous
 62
     2
100
AcDbBlockEnd
  0
BLOCK
  5
117
330
246
100
AcDbEntity
  8
DEFAULT
 62
     1
100
AcDbBlockBegin
  2
SE7
 70
     0
 10
0.0
 20
0.0
 30
0.0
  3
SE7
  1

  0
LWPOLYLINE
  5
118
330
246
100
AcDbEntity
  8
DEFAULT
  6
Continuous
 62
     2
100
AcDbPolyline
 90
        4
 70
     0
 43
0.0
 10
84.0997763677088
 20
274.8375514963529
 10
80.59977625967539
 20
274.2542181450141
 10
84.0997763677088
 20
273.6708847936752
 10
84.0997763677088
 20
274.8375514963529
  0
LWPOLYLINE
  5
11E
330
246
100
AcDbEntity
  8
DEFAULT
  6
Continuous
 62
     2
100
AcDbPolyline
 90
        4
 70
     0
 43
0.0
 10
126.1025152937357
 20
274.8375514963529
 10
129.6025154017691
 20
274.2542181450141
 10
126.1025152937357
 20
273.6708847936752
 10
126.1025152937357
 20
274.8375514963529
  0
LINE
  5
124
330
246
100
AcDbEntity
  8
DEFAULT
  6
Continuous
 62
     2
100
AcDbLine
 10
80.59977625967539
 20
219.6830347939867
 30
0.0
 11
80.59977625967539
 21
276.0042181990308
 31
0.0
  0
LINE
  5
125
330
246
100
AcDbEntity
  8
DEFAULT
  6
Continuous
 62
     2
100
AcDbLine
 10
129.6025154017691
 20
205.3083218175817
 30
0.0
 11
129.6025154017691
 21
276.0042181990308
 31
0.0
  0
LINE
  5
126
330
246
100
AcDbEntity
  8
DEFAULT
  6
Continuous
 62
     2
100
AcDbLine
 10
80.59977625967539
 20
274.2542181450141
 30
0.0
 11
129.6025167918351
 21
274.2542181450141
 31
0.0
  0
TEXT
  5
127
330
246
100
AcDbEntity
  8
DEFAULT
  6
Continuous
 62
     2
100
AcDbText
 10
100.4151275684093
 20
275.1292181450141
 30
0.0
 40
3.5
  1
24,5
  7
seansi_ttf
 11
100.4151275684093
 21
278.6292181450141
 31
0.0
100
AcDbText
 73
     3
  0
ENDBLK
  5
128
330
246
100
AcDbEntity
  8
DEFAULT
  6
Continuous
 62
     2
100
AcDbBlockEnd
  0
BLOCK
  5
129
330
247
100
AcDbEntity
  8
DEFAULT
 62
     1
100
AcDbBlockBegin
  2
SE8
 70
     0
 10
0.0
 20
0.0
 30
0.0
  3
SE8
  1

  0
LWPOLYLINE
  5
12A
330
247
100
AcDbEntity
  8
DEFAULT
  6
Continuous
 62
     2
100
AcDbPolyline
 90
        4
 70
     0
 43
0.0
 10
170.4770142135419
 20
221.8083217094851
 10
169.893680862203
 20
225.3083218175185
 10
169.3103475108641
 20
221.8083217094851
 10
170.4770142135419
 20
221.8083217094851
  0
LWPOLYLINE
  5
130
330
247
100
AcDbEntity
  8
DEFAULT
  6
Continuous
 62
     2
100
AcDbPolyline
 90
        4
 70
     0
 43
0.0
 10
170.4770142135419
 20
188.8083219255519
 10
169.893680862203
 20
185.3083218175185
 10
169.3103475108641
 20
188.8083219255519
 10
170.4770142135419
 20
188.8083219255519
  0
LINE
  5
136
330
247
100
AcDbEntity
  8
DEFAULT
  6
Continuous
 62
     2
100
AcDbLine
 10
93.14603117865061
 20
225.3083218175185
 30
0.0
 11
171.6436809162197
 21
225.3083218175185
 31
0.0
  0
LINE
  5
137
330
247
100
AcDbEntity
  8
DEFAULT
  6
Continuous
 62
     2
100
AcDbLine
 10
98.63083133175713
 20
185.3083218175185
 30
0.0
 11
171.6436809162197
 21
185.3083218175185
 31
0.0
  0
LINE
  5
138
330
247
100
AcDbEntity
  8
DEFAULT
  6
Continuous
 62
     2
100
AcDbLine
 10
169.893680862203
 20
225.3083218175185
 30
0.0
 11
169.893680862203
 21
185.3083227115881
 31
0.0
  0
TEXT
  5
139
330
247
100
AcDbEntity
  8
DEFAULT
  6
Continuous
 62
     2
100
AcDbText
 10
169.018680862203
 20
205.8749078636221
 30
0.0
 40
3.5
  1
20
 50
90.0
  7
seansi_ttf
 11
165.518680862203
 21
205.8749078636221
 31
0.0
100
AcDbText
 73
     3
  0
TEXT
  5
13A
330
247
100
AcDbEntity
  8
DEFAULT
  6
Continuous
 62
     2
100
AcDbText
 10
169.018680862203
 20
199.4336797934467
 30
0.0
 40
3.5
  1
O
 50
90.0
  7
semeca1_ttf
 11
165.518680862203
 21
199.4336797934467
 31
0.0
100
AcDbText
 73
     3
  0
ENDBLK
  5
13B
330
247
100
AcDbEntity
  8
DEFAULT
  6
Continuous
 62
     2
100
AcDbBlockEnd
  0
BLOCK
  5
13C
330
248
100
AcDbEntity
  8
DEFAULT
 62
     1
100
AcDbBlockBegin
  2
SE9
 70
     0
 10
0.0
 20
0.0
 30
0.0
  3
SE9
  1

  0
LWPOLYLINE
  5
13D
330
248
100
AcDbEntity
  8
DEFAULT
  6
Continuous
 62
     2
100
AcDbPolyline
 90
        4
 70
     0
 43
0.0
 10
57.32409240155394
 20
225.8083217094851
 10
57.90742575289284
 20
229.3083218175185
 10
58.49075910423174
 20
225.8083217094851
 10
57.32409240155394
 20
225.8083217094851
  0
LWPOLYLINE
  5
143
330
248
100
AcDbEntity
  8
DEFAULT
  6
Continuous
 62
     2
100
AcDbPolyline
 90
        4
 70
     0
 43
0.0
 10
57.32409240155394
 20
184.8083219255519
 10
57.90742575289284
 20
181.3083218175185
 10
58.49075910423174
 20
184.8083219255519
 10
57.32409240155394
 20
184.8083219255519
  0
LINE
  5
149
330
248
100
AcDbEntity
  8
DEFAULT
  6
Continuous
 62
     2
100
AcDbLine
 10
79.59977625967538
 20
229.3083218175185
 30
0.0
 11
56.15742569887614
 21
229.3083218175185
 31
0.0
  0
LINE
  5
14A
330
248
100
AcDbEntity
  8
DEFAULT
  6
Continuous
 62
     2
100
AcDbLine
 10
79.59977625967538
 20
181.3083218175185
 30
0.0
 11
56.15742569887614
 21
181.3083218175185
 31
0.0
  0
LINE
  5
14B
330
248
100
AcDbEntity
  8
DEFAULT
  6
Continuous
 62
     2
100
AcDbLine
 10
57.90742575289284
 20
229.3083218175185
 30
0.0
 11
57.90742575289284
 21
181.308321400286
 31
0.0
  0
TEXT
  5
14C
330
248
100
AcDbEntity
  8
DEFAULT
  6
Continuous
 62
     2
100
AcDbText
 10
57.03242575289284
 20
205.874907207971
 30
0.0
 40
3.5
  1
24
 50
90.0
  7
seansi_ttf
 11
53.53242575289284
 21
205.874907207971
 31
0.0
100
AcDbText
 73
     3
  0
TEXT
  5
14D
330
248
100
AcDbEntity
  8
DEFAULT
  6
Continuous
 62
     2
100
AcDbText
 10
57.03242575289284
 20
199.4336791377956
 30
0.0
 40
3.5
  1
O
 50
90.0
  7
semeca1_ttf
 11
53.53242575289284
 21
199.4336791377956
 31
0.0
100
AcDbText
 73
     3
  0
ENDBLK
  5
14E
330
248
100
AcDbEntity
  8
DEFAULT
  6
Continuous
 62
     2
100
AcDbBlockEnd
  0
BLOCK
  5
14F
330
249
100
AcDbEntity
  8
DEFAULT
 62
     1
100
AcDbBlockBegin
  2
SE10
 70
     0
 10
0.0
 20
0.0
 30
0.0
  3
SE10
  1

  0
LWPOLYLINE
  5
150
330
249
100
AcDbEntity
  8
DEFAULT
  6
Continuous
 62
     2
100
AcDbPolyline
 90
        4
 70
     0
 43
0.0
 10
153.87855823389
 20
168.1106297281095
 10
157.3785583419234
 20
167.5272963767706
 10
153.87855823389
 20
166.9439630254317
 10
153.87855823389
 20
168.1106297281095
  0
LWPOLYLINE
  5
156
330
249
100
AcDbEntity
  8
DEFAULT
  6
Continuous
 62
     2
100
AcDbPolyline
 90
        4
 70
     0
 43
0.0
 10
171.6785584499568
 20
168.1106297281095
 10
168.1785583419234
 20
167.5272963767706
 10
171.6785584499568
 20
166.9439630254317
 10
171.6785584499568
 20
168.1106297281095
  0
LINE
  5
15C
330
249
100
AcDbEntity
  8
DEFAULT
  6
Continuous
 62
     2
100
AcDbLine
 10
157.3785583419234
 20
155.8792963461007
 30
0.0
 11
157.3785583419234
 21
169.2772964307873
 31
0.0
  0
LINE
  5
15D
330
249
100
AcDbEntity
  8
DEFAULT
  6
Continuous
 62
     2
100
AcDbLine
 10
168.1785583419234
 20
155.4799363349527
 30
0.0
 11
168.1785583419234
 21
169.2772964307873
 31
0.0
  0
LINE
  5
15E
330
249
100
AcDbEntity
  8
DEFAULT
  6
Continuous
 62
     2
100
AcDbLine
 10
150.3785581258566
 20
167.5272963767706
 30
0.0
 11
175.1785579068095
 21
167.5272963767706
 31
0.0
  0
TEXT
  5
15F
330
249
100
AcDbEntity
  8
DEFAULT
  6
Continuous
 62
     2
100
AcDbText
 10
159.4195537426579
 20
168.4022963767706
 30
0.0
 40
3.5
  1
5,4
  7
seansi_ttf
 11
159.4195537426579
 21
171.9022963767706
 31
0.0
100
AcDbText
 73
     3
  0
ENDBLK
  5
160
330
249
100
AcDbEntity
  8
DEFAULT
  6
Continuous
 62
     2
100
AcDbBlockEnd
  0
BLOCK
  5
161
330
24A
100
AcDbEntity
  8
DEFAULT
 62
     1
100
AcDbBlockBegin
  2
SE11
 70
     0
 10
0.0
 20
0.0
 30
0.0
  3
SE11
  1

  0
LWPOLYLINE
  5
162
330
24A
100
AcDbEntity
  8
DEFAULT
  6
Continuous
 62
     2
100
AcDbPolyline
 90
        4
 70
     0
 43
0.0
 10
186.7268787775318
 20
152.7955814091324
 10
186.1435454261929
 20
156.2955815171658
 10
185.560212074854
 20
152.7955814091324
 10
186.7268787775318
 20
152.7955814091324
  0
LWPOLYLINE
  5
168
330
24A
100
AcDbEntity
  8
DEFAULT
  6
Continuous
 62
     2
100
AcDbPolyline
 90
        4
 70
     0
 43
0.0
 10
186.7268787775318
 20
138.9955816251992
 10
186.1435454261929
 20
135.4955815171658
 10
185.560212074854
 20
138.9955816251992
 10
186.7268787775318
 20
138.9955816251992
  0
LINE
  5
16E
330
24A
100
AcDbEntity
  8
DEFAULT
  6
Continuous
 62
     2
100
AcDbLine
 10
167.4033671737672
 20
156.2955815171658
 30
0.0
 11
187.8935454802096
 21
156.2955815171658
 31
0.0
  0
LINE
  5
16F
330
24A
100
AcDbEntity
  8
DEFAULT
  6
Continuous
 62
     2
100
AcDbLine
 10
167.4724871756966
 20
135.4955815171658
 30
0.0
 11
187.8935454802096
 21
135.4955815171658
 31
0.0
  0
LINE
  5
170
330
24A
100
AcDbEntity
  8
DEFAULT
  6
Continuous
 62
     2
100
AcDbLine
 10
186.1435454261929
 20
156.2955815171658
 30
0.0
 11
186.1435454261929
 21
135.4955814605414
 31
0.0
  0
TEXT
  5
171
330
24A
100
AcDbEntity
  8
DEFAULT
  6
Continuous
 62
     2
100
AcDbText
 10
185.2685454261929
 20
141.2095625315076
 30
0.0
 40
3.5
  1
10,4
 50
90.0
  7
seansi_ttf
 11
181.7685454261929
 21
141.2095625315076
 31
0.0
100
AcDbText
 73
     3
  0
ENDBLK
  5
172
330
24A
100
AcDbEntity
  8
DEFAULT
  6
Continuous
 62
     2
100
AcDbBlockEnd
  0
BLOCK
  5
173
330
24B
100
AcDbEntity
  8
DEFAULT
 62
     1
100
AcDbBlockBegin
  2
SE12
 70
     0
 10
0.0
 20
0.0
 30
0.0
  3
SE12
  1

  0
LWPOLYLINE
  5
174
330
24B
100
AcDbEntity
  8
DEFAULT
  6
Continuous
 62
     2
100
AcDbPolyline
 90
        4
 70
     0
 43
0.0
 10
169.67855823389
 20
125.0378978862573
 10
173.1785583419234
 20
125.6212312375962
 10
169.67855823389
 20
126.2045645889351
 10
169.67855823389
 20
125.0378978862573
  0
LWPOLYLINE
  5
17A
330
24B
100
AcDbEntity
  8
DEFAULT
  6
Continuous
 62
     2
100
AcDbPolyline
 90
        4
 70
     0
 43
0.0
 10
155.8785584499568
 20
125.0378978862573
 10
152.3785583419234
 20
125.6212312375962
 10
155.8785584499568
 20
126.2045645889351
 10
155.8785584499568
 20
125.0378978862573
  0
LINE
  5
180
330
24B
100
AcDbEntity
  8
DEFAULT
  6
Continuous
 62
     2
100
AcDbLine
 10
173.1785583419234
 20
142.1962185065953
 30
0.0
 11
173.1785583419234
 21
123.8712311835794
 31
0.0
  0
LINE
  5
181
330
24B
100
AcDbEntity
  8
DEFAULT
  6
Continuous
 62
     2
100
AcDbLine
 10
152.3785583419234
 20
141.9968338856449
 30
0.0
 11
152.3785583419234
 21
123.8712311835795
 31
0.0
  0
LINE
  5
182
330
24B
100
AcDbEntity
  8
DEFAULT
  6
Continuous
 62
     2
100
AcDbLine
 10
173.1785583419234
 20
125.6212312375962
 30
0.0
 11
152.378558285299
 21
125.6212312375962
 31
0.0
  0
TEXT
  5
183
330
24B
100
AcDbEntity
  8
DEFAULT
  6
Continuous
 62
     2
100
AcDbText
 10
158.0925393562652
 20
126.4962312375962
 30
0.0
 40
3.5
  1
10,4
  7
seansi_ttf
 11
158.0925393562652
 21
129.9962312375962
 31
0.0
100
AcDbText
 73
     3
  0
ENDBLK
  5
184
330
24B
100
AcDbEntity
  8
DEFAULT
  6
Continuous
 62
     2
100
AcDbBlockEnd
  0
BLOCK
  5
185
330
24C
100
AcDbEntity
  8
DEFAULT
 62
     1
100
AcDbBlockBegin
  2
SE13
 70
     0
 10
0.0
 20
0.0
 30
0.0
  3
SE13
  1

  0
LWPOLYLINE
  5
186
330
24C
100
AcDbEntity
  8
DEFAULT
  6
Continuous
 62
     2
100
AcDbPolyline
 90
        4
 70
     0
 43
0.0
 10
17.92986592783508
 20
165.5565473200022
 10
18.51319927917398
 20
169.0565474280356
 10
19.09653263051288
 20
165.5565473200022
 10
17.92986592783508
 20
165.5565473200022
  0
LWPOLYLINE
  5
18C
330
24C
100
AcDbEntity
  8
DEFAULT
  6
Continuous
 62
     2
100
AcDbPolyline
 90
        4
 70
     0
 43
0.0
 10
17.92986592783508
 20
132.356547536069
 10
18.51319927917398
 20
128.8565474280356
 10
19.09653263051288
 20
132.356547536069
 10
17.92986592783508
 20
132.356547536069
  0
LINE
  5
192
330
24C
100
AcDbEntity
  8
DEFAULT
  6
Continuous
 62
     2
100
AcDbLine
 10
52.64280397640145
 20
169.0565474280356
 30
0.0
 11
16.76319922515727
 21
169.0565474280356
 31
0.0
  0
LINE
  5
193
330
24C
100
AcDbEntity
  8
DEFAULT
  6
Continuous
 62
     2
100
AcDbLine
 10
52.64280397640145
 20
128.8565474280356
 30
0.0
 11
16.76319922515727
 21
128.8565474280356
 31
0.0
  0
LINE
  5
194
330
24C
100
AcDbEntity
  8
DEFAULT
  6
Continuous
 62
     2
100
AcDbLine
 10
18.51319927917398
 20
169.0565474280356
 30
0.0
 11
18.51319927917398
 21
128.8565486618517
 31
0.0
  0
TEXT
  5
195
330
24C
100
AcDbEntity
  8
DEFAULT
  6
Continuous
 62
     2
100
AcDbText
 10
17.63819927917398
 20
144.2705290875977
 30
0.0
 40
3.5
  1
20,1
 50
90.0
  7
seansi_ttf
 11
14.13819927917398
 21
144.2705290875977
 31
0.0
100
AcDbText
 73
     3
  0
ENDBLK
  5
196
330
24C
100
AcDbEntity
  8
DEFAULT
  6
Continuous
 62
     2
100
AcDbBlockEnd
  0
BLOCK
  5
197
330
24D
100
AcDbEntity
  8
DEFAULT
 62
     1
100
AcDbBlockBegin
  2
SE14
 70
     0
 10
0.0
 20
0.0
 30
0.0
  3
SE14
  1

  0
LWPOLYLINE
  5
198
330
24D
100
AcDbEntity
  8
DEFAULT
  6
Continuous
 62
     2
100
AcDbPolyline
 90
        4
 70
     0
 43
0.0
 10
38.54280408443486
 20
118.4913590378334
 10
35.04280397640144
 20
119.0746923891722
 10
38.54280408443486
 20
119.6580257405112
 10
38.54280408443486
 20
118.4913590378334
  0
LWPOLYLINE
  5
19E
330
24D
100
AcDbEntity
  8
DEFAULT
  6
Continuous
 62
     2
100
AcDbPolyline
 90
        4
 70
     0
 43
0.0
 10
66.74280386836804
 20
118.4913590378334
 10
70.24280397640146
 20
119.0746923891722
 10
66.74280386836804
 20
119.6580257405112
 10
66.74280386836804
 20
118.4913590378334
  0
LINE
  5
1A4
330
24D
100
AcDbEntity
  8
DEFAULT
  6
Continuous
 62
     2
100
AcDbLine
 10
35.04280397640144
 20
142.4765065339744
 30
0.0
 11
35.04280397640144
 21
117.3246923351556
 31
0.0
  0
LINE
  5
1A5
330
24D
100
AcDbEntity
  8
DEFAULT
  6
Continuous
 62
     2
100
AcDbLine
 10
70.24280397640146
 20
143.9391199081361
 30
0.0
 11
70.24280397640146
 21
117.3246923351555
 31
0.0
  0
LINE
  5
1A6
330
24D
100
AcDbEntity
  8
DEFAULT
  6
Continuous
 62
     2
100
AcDbLine
 10
35.04280397640144
 20
119.0746923891722
 30
0.0
 11
70.24280378566658
 21
119.0746923891722
 31
0.0
  0
TEXT
  5
1A7
330
24D
100
AcDbEntity
  8
DEFAULT
  6
Continuous
 62
     2
100
AcDbText
 10
47.95678492368804
 20
119.9496923891723
 30
0.0
 40
3.5
  1
17,6
  7
seansi_ttf
 11
47.95678492368804
 21
123.4496923891723
 31
0.0
100
AcDbText
 73
     3
  0
ENDBLK
  5
1A8
330
24D
100
AcDbEntity
  8
DEFAULT
  6
Continuous
 62
     2
100
AcDbBlockEnd
  0
BLOCK
  5
1A9
330
24E
100
AcDbEntity
  8
DEFAULT
 62
     1
100
AcDbBlockBegin
  2
SE15
 70
     0
 10
0.0
 20
0.0
 30
0.0
  3
SE15
  1

  0
LWPOLYLINE
  5
1AA
330
24E
100
AcDbEntity
  8
DEFAULT
  6
Continuous
 62
     2
100
AcDbPolyline
 90
        4
 70
     0
 43
0.0
 10
162.4326421573295
 20
208.8083219256224
 10
161.8493088059906
 20
205.308321817589
 10
161.2659754546517
 20
208.8083219256224
 10
162.4326421573295
 20
208.8083219256224
  0
LWPOLYLINE
  5
1B0
330
24E
100
AcDbEntity
  8
DEFAULT
  6
Continuous
 62
     2
100
AcDbPolyline
 90
        4
 70
     0
 43
0.0
 10
162.4326421573295
 20
250.608640698956
 10
161.8493088059906
 20
254.1086408069895
 10
161.2659754546517
 20
250.608640698956
 10
162.4326421573295
 20
250.608640698956
  0
LINE
  5
1B6
330
24E
100
AcDbEntity
  8
DEFAULT
  6
Continuous
 62
     2
100
AcDbLine
 10
134.4253074526139
 20
205.3083218175868
 30
0.0
 11
163.5993088600073
 21
205.308321817589
 31
0.0
  0
LINE
  5
1B7
330
24E
100
AcDbEntity
  8
DEFAULT
  6
Continuous
 62
     2
100
AcDbLine
 10
145.9997762596754
 20
254.1086408069895
 30
0.0
 11
163.5993088600073
 21
254.1086408069895
 31
0.0
  0
LINE
  5
1B8
330
24E
100
AcDbEntity
  8
DEFAULT
  6
Continuous
 62
     2
100
AcDbLine
 10
161.8493088059906
 20
205.308321817589
 30
0.0
 11
161.8493088059906
 21
254.1086412508013
 31
0.0
  0
TEXT
  5
1B9
330
24E
100
AcDbEntity
  8
DEFAULT
  6
Continuous
 62
     2
100
AcDbText
 10
160.9743088059906
 20
227.0544530981762
 30
0.0
 40
3.5
  1
40
 50
90.0
  7
seansi_ttf
 11
157.4743088059906
 21
227.0544530981762
 31
0.0
100
AcDbText
 73
     3
  0
ENDBLK
  5
1BA
330
24E
100
AcDbEntity
  8
DEFAULT
  6
Continuous
 62
     2
100
AcDbBlockEnd
  0
BLOCK
  5
1BB
330
24F
100
AcDbEntity
  8
DEFAULT
 62
     1
100
AcDbBlockBegin
  2
SE16
 70
     0
 10
0.0
 20
0.0
 30
0.0
  3
SE16
  1

  0
LWPOLYLINE
  5
1BC
330
24F
100
AcDbEntity
  8
DEFAULT
  6
Continuous
 62
     2
100
AcDbPolyline
 90
        4
 70
     0
 43
0.0
 10
120.0997763677088
 20
262.5811264375113
 10
116.5997762596754
 20
261.9977930861724
 10
120.0997763677088
 20
261.4144597348335
 10
120.0997763677088
 20
262.5811264375113
  0
LWPOLYLINE
  5
1C2
330
24F
100
AcDbEntity
  8
DEFAULT
  6
Continuous
 62
     2
100
AcDbPolyline
 90
        4
 70
     0
 43
0.0
 10
138.4997761516419
 20
262.5811264375113
 10
141.9997762596754
 20
261.9977930861724
 10
138.4997761516419
 20
261.4144597348335
 10
138.4997761516419
 20
262.5811264375113
  0
LINE
  5
1C8
330
24F
100
AcDbEntity
  8
DEFAULT
  6
Continuous
 62
     2
100
AcDbLine
 10
116.5997762596754
 20
202.7640309842226
 30
0.0
 11
116.5997762596754
 21
263.7477931401891
 31
0.0
  0
LINE
  5
1C9
330
24F
100
AcDbEntity
  8
DEFAULT
  6
Continuous
 62
     2
100
AcDbLine
 10
141.9997762596754
 20
249.2472828477809
 30
0.0
 11
141.9997762596754
 21
263.7477931401891
 31
0.0
  0
LINE
  5
1CA
330
24F
100
AcDbEntity
  8
DEFAULT
  6
Continuous
 62
     2
100
AcDbLine
 10
116.5997762596754
 20
261.9977930861724
 30
0.0
 11
141.9997759527114
 21
261.9977930861724
 31
0.0
  0
TEXT
  5
1CB
330
24F
100
AcDbEntity
  8
DEFAULT
  6
Continuous
 62
     2
100
AcDbText
 10
124.6137571488474
 20
262.8727930861724
 30
0.0
 40
3.5
  1
12,7
  7
seansi_ttf
 11
124.6137571488474
 21
266.3727930861724
 31
0.0
100
AcDbText
 73
     3
  0
ENDBLK
  5
1CC
330
24F
100
AcDbEntity
  8
DEFAULT
  6
Continuous
 62
     2
100
AcDbBlockEnd
  0
ENDSEC
  0
SECTION
  2
ENTITIES
  0
INSERT
  5
61
330
23B
100
AcDbEntity
  8
DEFAULT
 62
     0
100
AcDbBlockReference
  2
SE1
 10
0.0
 20
0.0
 30
0.0
  0
LINE
  5
265
330
23B
100
AcDbEntity
  8
DV2_PREDEFINITO
  6
Continuous
 62
     7
100
AcDbLine
 10
89.35697228327393
 20
93.22417508291101
 30
0.0
 11
89.35697228327393
 21
105.1520933789538
 31
0.0
  0
LINE
  5
266
330
23B
100
AcDbEntity
  8
DV2_PREDEFINITO
  6
Continuous
 62
     7
100
AcDbLine
 10
93.35697228327394
 20
93.22417508291101
 30
0.0
 11
93.35697228327394
 21
105.1520933789538
 31
0.0
  0
LINE
  5
267
330
23B
100
AcDbEntity
  8
DV2_PREDEFINITO
  6
Continuous
 62
     7
100
AcDbLine
 10
93.35697228327394
 20
105.1520933789539
 30
0.0
 11
89.35697228327393
 21
105.1520933789539
 31
0.0
  0
LINE
  5
26A
330
23B
100
AcDbEntity
  8
DV1_PREDEFINITO
  6
Continuous
 62
     7
100
AcDbLine
 10
27.95697228327392
 20
32.3517743894829
 30
0.0
 11
27.95697228327392
 21
80.3517743894829
 31
0.0
  0
LINE
  5
26B
330
23B
100
AcDbEntity
  8
DV1_PREDEFINITO
  6
Continuous
 62
     7
100
AcDbLine
 10
27.95697228327392
 20
80.3517743894829
 30
0.0
 11
25.95697228327392
 21
80.3517743894829
 31
0.0
  0
LINE
  5
26C
330
23B
100
AcDbEntity
  8
DV1_PREDEFINITO
  6
Continuous
 62
     7
100
AcDbLine
 10
15.95697228327392
 20
74.57827169758664
 30
0.0
 11
15.95697228327392
 21
38.12527708137915
 31
0.0
  0
LINE
  5
26D
330
23B
100
AcDbEntity
  8
DV1_PREDEFINITO
  6
Continuous
 62
     7
100
AcDbLine
 10
25.95697228327392
 20
32.3517743894829
 30
0.0
 11
27.95697228327392
 21
32.3517743894829
 31
0.0
  0
LINE
  5
26E
330
23B
100
AcDbEntity
  8
DV1_PREDEFINITO
  6
Continuous
 62
     7
100
AcDbLine
 10
27.95697228327392
 20
36.3517743894829
 30
0.0
 11
57.95697228327393
 21
36.3517743894829
 31
0.0
  0
LINE
  5
26F
330
23B
100
AcDbEntity
  8
DV1_PREDEFINITO
  6
Continuous
 62
     7
100
AcDbLine
 10
63.95697228327392
 20
40.2517743894829
 30
0.0
 11
63.95697228327392
 21
72.45177438948292
 31
0.0
  0
LINE
  5
270
330
23B
100
AcDbEntity
  8
DV1_PREDEFINITO
  6
Continuous
 62
     7
100
AcDbLine
 10
57.95697228327392
 20
76.35177438948289
 30
0.0
 11
27.95697228327391
 21
76.35177438948289
 31
0.0
  0
LINE
  5
271
330
23B
100
AcDbEntity
  8
DV1_PREDEFINITO
  6
Continuous
 62
     7
100
AcDbLine
 10
27.95697228327392
 20
76.35177438948289
 30
0.0
 11
27.95697228327392
 21
36.3517743894829
 31
0.0
  0
LINE
  5
272
330
23B
100
AcDbEntity
  8
DV1_PREDEFINITO
  6
Continuous
 62
     7
100
AcDbLine
 10
25.95697228327392
 20
32.3517743894829
 30
0.0
 11
25.95697228327392
 21
80.3517743894829
 31
0.0
  0
LINE
  5
273
330
23B
100
AcDbEntity
  8
DV1_PREDEFINITO
  6
Continuous
 62
     7
100
AcDbLine
 10
25.95697228327392
 20
80.3517743894829
 30
0.0
 11
15.95697228327392
 21
74.57827169758664
 31
0.0
  0
LINE
  5
274
330
23B
100
AcDbEntity
  8
DV1_PREDEFINITO
  6
Continuous
 62
     7
100
AcDbLine
 10
25.95697228327392
 20
32.3517743894829
 30
0.0
 11
15.95697228327392
 21
38.12527708137915
 31
0.0
  0
LINE
  5
275
330
23B
100
AcDbEntity
  8
DV1_PREDEFINITO
  6
Continuous
 62
     7
100
AcDbLine
 10
57.95697228327392
 20
36.3517743894829
 30
0.0
 11
57.95697228327392
 21
76.35177438948287
 31
0.0
  0
LINE
  5
276
330
23B
100
AcDbEntity
  8
DV1_PREDEFINITO
  6
Continuous
 62
     7
100
AcDbLine
 10
63.95697228327392
 20
72.45177438948292
 30
0.0
 11
57.95697228327392
 21
72.45177438948292
 31
0.0
  0
LINE
  5
277
330
23B
100
AcDbEntity
  8
DV1_PREDEFINITO
  6
Continuous
 62
     7
100
AcDbLine
 10
57.95697228327392
 20
40.2517743894829
 30
0.0
 11
63.95697228327392
 21
40.2517743894829
 31
0.0
  0
LINE
  5
278
330
23B
100
AcDbEntity
  8
DV1_PREDEFINITO
  6
Continuous
 62
     7
100
AcDbLine
 10
63.95697228327392
 20
42.2517743894829
 30
0.0
 11
67.95697228327393
 21
42.2517743894829
 31
0.0
  0
LINE
  5
279
330
23B
100
AcDbEntity
  8
DV1_PREDEFINITO
  6
Continuous
 62
     7
100
AcDbLine
 10
67.95697228327393
 20
42.2517743894829
 30
0.0
 11
67.95697228327393
 21
71.35177438948287
 31
0.0
  0
LINE
  5
27A
330
23B
100
AcDbEntity
  8
DV1_PREDEFINITO
  6
Continuous
 62
     7
100
AcDbLine
 10
63.95697228327392
 20
71.35177438948287
 30
0.0
 11
63.95697228327392
 21
42.2517743894829
 31
0.0
  0
LINE
  5
27B
330
23B
100
AcDbEntity
  8
DV1_PREDEFINITO
  6
Continuous
 62
     7
100
AcDbLine
 10
71.95697228327396
 20
51.46202202435086
 30
0.0
 11
71.95697228327396
 21
61.24152675461499
 31
0.0
  0
LINE
  5
27C
330
23B
100
AcDbEntity
  8
DV1_PREDEFINITO
  6
Continuous
 62
     7
100
AcDbLine
 10
69.66866859525149
 20
67.3517743894829
 30
0.0
 11
67.95697228327393
 21
67.3517743894829
 31
0.0
  0
LINE
  5
27D
330
23B
100
AcDbEntity
  8
DV1_PREDEFINITO
  6
Continuous
 62
     7
100
AcDbLine
 10
67.95697228327393
 20
67.3517743894829
 30
0.0
 11
67.95697228327393
 21
45.3517743894829
 31
0.0
  0
LINE
  5
27E
330
23B
100
AcDbEntity
  8
DV1_PREDEFINITO
  6
Continuous
 62
     7
100
AcDbLine
 10
67.95697228327393
 20
45.3517743894829
 30
0.0
 11
69.66866859525146
 21
45.3517743894829
 31
0.0
  0
LINE
  5
27F
330
23B
100
AcDbEntity
  8
DV1_PREDEFINITO
  6
Continuous
 62
     7
100
AcDbLine
 10
71.93644560249413
 20
61.41335443182228
 30
0.0
 11
70.04814191447167
 21
67.07826549588964
 31
0.0
  0
LINE
  5
280
330
23B
100
AcDbEntity
  8
DV1_PREDEFINITO
  6
Continuous
 62
     7
100
AcDbLine
 10
71.93644560249413
 20
51.29019434714348
 30
0.0
 11
70.04814191447167
 21
45.62528328307613
 31
0.0
  0
ARC
  5
281
330
23B
100
AcDbEntity
  8
DV1_PREDEFINITO
  6
Continuous
 62
     7
100
AcDbCircle
 10
69.66866859525149
 20
66.95177438948289
 30
0.0
 40
0.4
100
AcDbArc
 50
18.43494882292291
 51
90.0
  0
ARC
  5
282
330
23B
100
AcDbEntity
  8
DV1_PREDEFINITO
  6
Continuous
 62
     7
100
AcDbCircle
 10
71.22752908689117
 20
61.24152675461496
 30
0.0
 40
0.7294431963827791
100
AcDbArc
 50
0.0
 51
13.62463820697463
  0
ARC
  5
283
330
23B
100
AcDbEntity
  8
DV1_PREDEFINITO
  6
Continuous
 62
     7
100
AcDbCircle
 10
71.22752908689117
 20
51.46202202435086
 30
0.0
 40
0.729443196382782
100
AcDbArc
 50
346.3753617930203
 51
0.0
  0
ARC
  5
284
330
23B
100
AcDbEntity
  8
DV1_PREDEFINITO
  6
Continuous
 62
     7
100
AcDbCircle
 10
69.66866859525149
 20
45.75177438948287
 30
0.0
 40
0.4
100
AcDbArc
 50
270.0
 51
341.5650511770806
  0
LINE
  5
285
330
23B
100
AcDbEntity
  8
DV1_PREDEFINITO
  6
Continuous
 62
     7
100
AcDbLine
 10
71.95697228327393
 20
51.35177439179432
 30
0.0
 11
75.63025249195295
 21
51.35177439179432
 31
0.0
  0
LINE
  5
286
330
23B
100
AcDbEntity
  8
DV1_PREDEFINITO
  6
Continuous
 62
     7
100
AcDbLine
 10
75.63025249138124
 20
61.35177438711924
 30
0.0
 11
71.95697228327393
 21
61.35177438711924
 31
0.0
  0
LINE
  5
287
330
23B
100
AcDbEntity
  8
DV1_PREDEFINITO
  6
Continuous
 62
     7
100
AcDbLine
 10
71.95697228327393
 20
61.35177438711924
 30
0.0
 11
71.95697228327393
 21
51.35177439179429
 31
0.0
  0
ARC
  5
288
330
23B
100
AcDbEntity
  8
DV1_PREDEFINITO
  6
Continuous
 62
     7
100
AcDbCircle
 10
64.73375726171591
 20
56.35177438877803
 30
0.0
 40
12.22595416365172
100
AcDbArc
 50
336.9367899962765
 51
23.06321001092193
  0
ARC
  5
289
330
23B
100
AcDbEntity
  8
DV1_PREDEFINITO
  6
Continuous
 62
     7
100
AcDbCircle
 10
75.63025249138124
 20
60.95177438711925
 30
0.0
 40
0.3999999999999995
100
AcDbArc
 50
28.27371361590417
 51
90.0
  0
ARC
  5
28A
330
23B
100
AcDbEntity
  8
DV1_PREDEFINITO
  6
Continuous
 62
     7
100
AcDbCircle
 10
75.63025249195295
 20
51.75177439179432
 30
0.0
 40
0.3999999999999976
100
AcDbArc
 50
270.0
 51
331.7262863931911
  0
LINE
  5
28B
330
23B
100
AcDbEntity
  8
DV1_PREDEFINITO
  6
Continuous
 62
     7
100
AcDbLine
 10
75.93697227813724
 20
56.55177438956053
 30
0.0
 11
75.93697227813724
 21
56.15177438956052
 31
0.0
  0
LINE
  5
28C
330
23B
100
AcDbEntity
  8
DV1_PREDEFINITO
  6
Continuous
 62
     7
100
AcDbLine
 10
75.93697227813724
 20
56.15177438956052
 30
0.0
 11
76.95807545178386
 21
56.15177438956052
 31
0.0
  0
LINE
  5
28D
330
23B
100
AcDbEntity
  8
DV1_PREDEFINITO
  6
Continuous
 62
     7
100
AcDbLine
 10
75.93697227813724
 20
56.55177438956053
 30
0.0
 11
76.95807545175824
 21
56.55177438956053
 31
0.0
  0
LINE
  5
28E
330
23B
100
AcDbEntity
  8
DV1_PREDEFINITO
  6
Continuous
 62
     7
100
AcDbLine
 10
75.98005408112737
 20
56.731781687139
 30
0.0
 11
76.93991648772933
 21
57.04721105801571
 31
0.0
  0
LINE
  5
28F
330
23B
100
AcDbEntity
  8
DV1_PREDEFINITO
  6
Continuous
 62
     7
100
AcDbLine
 10
75.98005408112737
 20
55.97176709198203
 30
0.0
 11
76.93991648781684
 21
55.65633772107656
 31
0.0
  0
ARC
  5
290
330
23B
100
AcDbEntity
  8
DV1_PREDEFINITO
  6
Continuous
 62
     7
100
AcDbCircle
 10
76.10493183650075
 20
56.35177438956055
 30
0.0
 40
0.4
100
AcDbArc
 50
108.1915243984004
 51
251.8084756016019
  0
LINE
  5
292
330
23B
100
AcDbEntity
  8
DV1_PREDEFINITO
  6
Continuous
 62
     7
100
AcDbLine
 10
17.6
 20
9.708243919473801
 30
0.0
 11
17.6
 21
-9.708243919473773
 31
0.0
  0
LINE
  5
293
330
23B
100
AcDbEntity
  8
DV1_PREDEFINITO
  6
Continuous
 62
     7
100
AcDbLine
 10
-17.60000000000001
 20
9.708243919473801
 30
0.0
 11
-17.60000000000001
 21
-9.708243919473773
 31
0.0
  0
ARC
  5
294
330
23B
100
AcDbEntity
  8
DV1_PREDEFINITO
  6
Continuous
 62
     7
100
AcDbCircle
 10
0.0
 20
0.0
 30
0.0
 40
20.10000000000001
100
AcDbArc
 50
28.88133818184621
 51
151.1186618181538
  0
ARC
  5
295
330
23B
100
AcDbEntity
  8
DV1_PREDEFINITO
  6
Continuous
 62
     7
100
AcDbCircle
 10
0.0
 20
0.0
 30
0.0
 40
20.10000000000001
100
AcDbArc
 50
208.8813381818462
 51
331.1186618181539
  0
LINE
  5
296
330
23B
100
AcDbEntity
  8
DV1_PREDEFINITO
  6
Continuous
 62
     7
100
AcDbLine
 10
27.95697228327392
 20
66.0600183089567
 30
0.0
 11
57.95697228327393
 21
66.0600183089567
 31
0.0
  0
LINE
  5
297
330
23B
100
AcDbEntity
  8
DV1_PREDEFINITO
  6
Continuous
 62
     7
100
AcDbLine
 10
27.95697228327392
 20
46.6435304700091
 30
0.0
 11
57.95697228327393
 21
46.6435304700091
 31
0.0
  0
LINE
  5
298
330
23B
100
AcDbEntity
  8
DV1_PREDEFINITO
  6
Continuous
 62
     7
100
AcDbLine
 10
57.95697228327392
 20
66.0600183089567
 30
0.0
 11
27.95697228327391
 21
46.64353047000912
 31
0.0
  0
LINE
  5
299
330
23B
100
AcDbEntity
  8
DV1_PREDEFINITO
  6
Continuous
 62
     7
100
AcDbLine
 10
27.95697228327392
 20
66.0600183089567
 30
0.0
 11
57.95697228327393
 21
46.64353047000912
 31
0.0
  0
LINE
  5
29A
330
23B
100
AcDbEntity
  8
DV1_PREDEFINITO
  6
Continuous
 62
     7
100
AcDbLine
 10
99.73575436552195
 20
2.339034089130223
 30
0.0
 11
99.73575436552195
 21
-8.460965910869759
 31
0.0
  0
LINE
  5
29B
330
23B
100
AcDbEntity
  8
DV1_PREDEFINITO
  6
Continuous
 62
     7
100
AcDbLine
 10
104.7357543655219
 20
-13.46096591086976
 30
0.0
 11
115.5357543655219
 21
-13.46096591086976
 31
0.0
  0
LINE
  5
29C
330
23B
100
AcDbEntity
  8
DV1_PREDEFINITO
  6
Continuous
 62
     7
100
AcDbLine
 10
120.5357543655219
 20
-8.460965910869788
 30
0.0
 11
120.5357543655219
 21
2.339034089130194
 31
0.0
  0
LINE
  5
29D
330
23B
100
AcDbEntity
  8
DV1_PREDEFINITO
  6
Continuous
 62
     7
100
AcDbLine
 10
115.5357543655219
 20
7.339034089130223
 30
0.0
 11
104.735754365522
 21
7.339034089130223
 31
0.0
  0
LINE
  5
29E
330
23B
100
AcDbEntity
  8
DV1_PREDEFINITO
  6
Continuous
 62
     7
100
AcDbLine
 10
115.5357543655219
 20
7.339034089130223
 30
0.0
 11
115.5357543655219
 21
2.339034089130223
 31
0.0
  0
LINE
  5
29F
330
23B
100
AcDbEntity
  8
DV1_PREDEFINITO
  6
Continuous
 62
     7
100
AcDbLine
 10
104.7357543655219
 20
7.339034089130223
 30
0.0
 11
104.7357543655219
 21
2.339034089130223
 31
0.0
  0
LINE
  5
2A0
330
23B
100
AcDbEntity
  8
DV1_PREDEFINITO
  6
Continuous
 62
     7
100
AcDbLine
 10
104.7357543655219
 20
7.339034089130223
 30
0.0
 11
115.5357543655219
 21
7.339034089130223
 31
0.0
  0
LINE
  5
2A1
330
23B
100
AcDbEntity
  8
DV1_PREDEFINITO
  6
Continuous
 62
     7
100
AcDbLine
 10
115.5357543655219
 20
-13.46096591086976
 30
0.0
 11
104.735754365522
 21
-13.46096591086976
 31
0.0
  0
LINE
  5
2A2
330
23B
100
AcDbEntity
  8
DV1_PREDEFINITO
  6
Continuous
 62
     7
100
AcDbLine
 10
99.73575436552195
 20
2.339034089130223
 30
0.0
 11
104.7357543655219
 21
2.339034089130223
 31
0.0
  0
LINE
  5
2A3
330
23B
100
AcDbEntity
  8
DV1_PREDEFINITO
  6
Continuous
 62
     7
100
AcDbLine
 10
99.73575436552195
 20
-8.460965910869788
 30
0.0
 11
104.7357543655219
 21
-8.460965910869788
 31
0.0
  0
LINE
  5
2A4
330
23B
100
AcDbEntity
  8
DV1_PREDEFINITO
  6
Continuous
 62
     7
100
AcDbLine
 10
99.73575436552195
 20
-8.460965910869788
 30
0.0
 11
99.73575436552195
 21
2.339034089130194
 31
0.0
  0
LINE
  5
2A5
330
23B
100
AcDbEntity
  8
DV1_PREDEFINITO
  6
Continuous
 62
     7
100
AcDbLine
 10
120.5357543655219
 20
2.339034089130223
 30
0.0
 11
120.5357543655219
 21
-8.460965910869759
 31
0.0
  0
LINE
  5
2A6
330
23B
100
AcDbEntity
  8
DV1_PREDEFINITO
  6
Continuous
 62
     7
100
AcDbLine
 10
115.5357543655219
 20
-8.460965910869788
 30
0.0
 11
115.5357543655219
 21
-13.46096591086979
 31
0.0
  0
LINE
  5
2A7
330
23B
100
AcDbEntity
  8
DV1_PREDEFINITO
  6
Continuous
 62
     7
100
AcDbLine
 10
115.5357543655219
 20
2.339034089130223
 30
0.0
 11
120.5357543655219
 21
2.339034089130223
 31
0.0
  0
LINE
  5
2A8
330
23B
100
AcDbEntity
  8
DV1_PREDEFINITO
  6
Continuous
 62
     7
100
AcDbLine
 10
104.7357543655219
 20
-8.460965910869788
 30
0.0
 11
104.7357543655219
 21
-13.46096591086979
 31
0.0
  0
LINE
  5
2A9
330
23B
100
AcDbEntity
  8
DV1_PREDEFINITO
  6
Continuous
 62
     7
100
AcDbLine
 10
115.5357543655219
 20
-8.460965910869788
 30
0.0
 11
120.5357543655219
 21
-8.460965910869788
 31
0.0
  0
LINE
  5
2AA
330
23B
100
AcDbEntity
  8
DV1_PREDEFINITO
  6
Continuous
 62
     7
100
AcDbLine
 10
68.95697228327392
 20
76.35177438948287
 30
0.0
 11
88.3569722832739
 21
76.35177438948287
 31
0.0
  0
LINE
  5
2AB
330
23B
100
AcDbEntity
  8
DV1_PREDEFINITO
  6
Continuous
 62
     7
100
AcDbLine
 10
89.35697228327393
 20
77.35177438948287
 30
0.0
 11
89.35697228327393
 21
88.22417508291099
 31
0.0
  0
LINE
  5
2AC
330
23B
100
AcDbEntity
  8
DV1_PREDEFINITO
  6
Continuous
 62
     7
100
AcDbLine
 10
68.95697228327392
 20
72.35177438948287
 30
0.0
 11
88.3569722832739
 21
72.35177438948287
 31
0.0
  0
LINE
  5
2AD
330
23B
100
AcDbEntity
  8
DV1_PREDEFINITO
  6
Continuous
 62
     7
100
AcDbLine
 10
93.35697228327394
 20
77.35177438948287
 30
0.0
 11
93.35697228327394
 21
88.22417508291099
 31
0.0
  0
ARC
  5
2AE
330
23B
100
AcDbEntity
  8
DV1_PREDEFINITO
  6
Continuous
 62
     7
100
AcDbCircle
 10
68.95697228327392
 20
71.35177438948287
 30
0.0
 40
5.0
100
AcDbArc
 50
90.0
 51
180.0
  0
ARC
  5
2AF
330
23B
100
AcDbEntity
  8
DV1_PREDEFINITO
  6
Continuous
 62
     7
100
AcDbCircle
 10
68.95697228327392
 20
71.35177438948287
 30
0.0
 40
1.0
100
AcDbArc
 50
90.0
 51
180.0
  0
ARC
  5
2B0
330
23B
100
AcDbEntity
  8
DV1_PREDEFINITO
  6
Continuous
 62
     7
100
AcDbCircle
 10
88.3569722832739
 20
77.35177438948287
 30
0.0
 40
1.0
100
AcDbArc
 50
270.0
 51
0.0
  0
ARC
  5
2B1
330
23B
100
AcDbEntity
  8
DV1_PREDEFINITO
  6
Continuous
 62
     7
100
AcDbCircle
 10
88.3569722832739
 20
77.35177438948287
 30
0.0
 40
5.0
100
AcDbArc
 50
270.0
 51
0.0
  0
LWPOLYLINE
  5
2B2
330
23B
100
AcDbEntity
  8
0
  6
Continuous
 62
     7
100
AcDbPolyline
 90
        6
 70
     0
 43
0.0
 10
89.35697228327393
 20
88.22417508291099
 10
89.85697228327394
 20
87.72417508291098
 10
90.85697228327394
 20
88.72417508291098
 10
91.85697228327393
 20
87.72417508291098
 10
92.85697228327393
 20
88.72417508291098
 10
93.35697228327394
 20
88.22417508291099
  0
LWPOLYLINE
  5
2B3
330
23B
100
AcDbEntity
  8
0
  6
Continuous
 62
     7
100
AcDbPolyline
 90
        6
 70
     0
 43
0.0
 10
89.35697228327393
 20
93.22417508291099
 10
89.85697228327394
 20
92.72417508291098
 10
90.85697228327394
 20
93.72417508291098
 10
91.85697228327393
 20
92.72417508291098
 10
92.85697228327393
 20
93.72417508291098
 10
93.35697228327394
 20
93.22417508291099
  0
ENDSEC
  0
SECTION
  2
OBJECTS
  0
DICTIONARY
  5
1DC
330
0
100
AcDbDictionary
281
     1
  3
ACAD_COLOR
350
232
  3
ACAD_GROUP
350
1DD
  3
ACAD_LAYOUT
350
231
  3
ACAD_MATERIAL
350
1E0
  3
ACAD_MLEADERSTYLE
350
235
  3
ACAD_MLINESTYLE
350
22E
  3
ACAD_PLOTSETTINGS
350
230
  3
ACAD_PLOTSTYLENAME
350
1DE
  3
ACAD_SCALELIST
350
212
  3
ACAD_TABLESTYLE
350
233
  3
ACAD_VISUALSTYLE
350
1F9
  3
ACDB_RECOMPOSE_DATA
350
2C7
  3
AcDbVariableDictionary
350
2B8
  3
ASE_INDEX_DICTIONARY
350
2B5
  3
DWGPROPS
350
2C8
  0
DICTIONARY
  5
268
330
23B
100
AcDbDictionary
280
     1
281
     1
  3
ACAD_SORTENTS
360
269
  0
DICTIONARY
  5
232
102
{ACAD_REACTORS
330
1DC
102
}
330
1DC
100
AcDbDictionary
281
     1
  0
DICTIONARY
  5
1DD
102
{ACAD_REACTORS
330
1DC
102
}
330
1DC
100
AcDbDictionary
281
     1
  0
DICTIONARY
  5
231
102
{ACAD_REACTORS
330
1DC
102
}
330
1DC
100
AcDbDictionary
281
     1
  3
Layout1
350
23A
  3
Model
350
23E
  0
DICTIONARY
  5
1E0
102
{ACAD_REACTORS
330
1DC
102
}
330
1DC
100
AcDbDictionary
281
     1
  3
ByBlock
350
1E9
  3
ByLayer
350
1E1
  3
Global
350
1F1
  0
DICTIONARY
  5
235
102
{ACAD_REACTORS
330
1DC
102
}
330
1DC
100
AcDbDictionary
281
     1
  3
Standard
350
236
  0
DICTIONARY
  5
22E
102
{ACAD_REACTORS
330
1DC
102
}
330
1DC
100
AcDbDictionary
281
     1
  3
Standard
350
22F
  0
DICTIONARY
  5
230
102
{ACAD_REACTORS
330
1DC
102
}
330
1DC
100
AcDbDictionary
281
     1
  0
ACDBDICTIONARYWDFLT
  5
1DE
102
{ACAD_REACTORS
330
1DC
102
}
330
1DC
100
AcDbDictionary
281
     1
  3
Normal
350
1DF
100
AcDbDictionaryWithDefault
340
1DF
  0
DICTIONARY
  5
212
102
{ACAD_REACTORS
330
1DC
102
}
330
1DC
100
AcDbDictionary
281
     1
  3
A0
350
213
  3
A1
350
214
  3
A2
350
215
  3
A3
350
216
  3
A4
350
217
  3
A5
350
218
  3
A6
350
219
  3
A7
350
21A
  3
A8
350
21B
  3
A9
350
21C
  3
B0
350
21D
  3
B1
350
21E
  3
B2
350
21F
  3
B3
350
220
  3
B4
350
221
  3
B5
350
222
  3
B6
350
223
  0
DICTIONARY
  5
233
102
{ACAD_REACTORS
330
1DC
102
}
330
1DC
100
AcDbDictionary
281
     1
  3
Standard
350
234
  0
DICTIONARY
  5
1F9
102
{ACAD_REACTORS
330
1DC
102
}
330
1DC
100
AcDbDictionary
281
     1
  3
2dWireframe
350
1FF
  3
Basic
350
1FE
  3
Brighten
350
205
  3
ColorChange
350
209
  3
Conceptual
350
202
  3
Dim
350
204
  3
EdgeColorOff
350
211
  3
Facepattern
350
208
  3
Flat
350
1FA
  3
FlatWithEdges
350
1FB
  3
Gouraud
350
1FC
  3
GouraudWithEdges
350
1FD
  3
Hidden
350
201
  3
JitterOff
350
20F
  3
Linepattern
350
207
  3
OverhangOff
350
210
  3
Realistic
350
203
  3
Shaded
350
20E
  3
Shaded with edges
350
20D
  3
Shades of Gray
350
20A
  3
Sketchy
350
20B
  3
Thicken
350
206
  3
Wireframe
350
200
  3
X-Ray
350
20C
  0
XRECORD
  5
2C7
102
{ACAD_REACTORS
330
1DC
102
}
330
1DC
100
AcDbXrecord
280
     1
 90
        1
330
234
  0
DICTIONARY
  5
2B8
102
{ACAD_REACTORS
330
1DC
102
}
330
1DC
100
AcDbDictionary
281
     1
  3
CANNOSCALE
350
2BC
  3
CMLEADERSTYLE
350
2BA
  3
CTABLESTYLE
350
2B9
  3
DIMASSOC
350
2C3
  3
HIDETEXT
350
2C2
  3
INDEXCTL
350
2C1
  3
LAYEREVAL
350
2BE
  3
LAYERNOTIFY
350
2BF
  3
LIGHTINGUNITS
350
2BD
  3
MSLTSCALE
350
2BB
  3
SORTENTS
350
2C0
  3
XCLIPFRAME
350
2C4
  0
DICTIONARY
  5
2B5
102
{ACAD_REACTORS
330
1DC
102
}
330
1DC
100
AcDbDictionary
281
     1
  3
ASEBlockHierarchyIndexRecord
350
2B7
1001
DCO15
1040
1713681230.103
  0
XRECORD
  5
2C8
102
{ACAD_REACTORS
330
1DC
102
}
330
1DC
100
AcDbXrecord
280
     1
  1
DWGPROPS COOKIE
  2

  3

  4

  6

  7

  8
mpistoia
  9

300
=
301
=
302
=
303
=
304
=
305
=
306
=
307
=
308
=
309
=
 40
0.0008306365740741
 41
2444975.041666666
 42
2455637.485348415
  1

 90
        0
  0
SORTENTSTABLE
  5
269
102
{ACAD_REACTORS
330
268
102
}
330
268
100
AcDbSortentsTable
330
23B
331
2AC
  5
2AA
331
28A
  5
288
331
29B
  5
299
331
279
  5
277
331
2AA
  5
2A8
331
288
  5
286
331
299
  5
297
331
277
  5
275
331
2A8
  5
2A6
331
286
  5
284
331
267
  5
2B2
331
297
  5
295
331
275
  5
273
331
61
  5
2B3
331
2A6
  5
2A4
331
284
  5
282
331
265
  5
2B0
331
295
  5
293
331
273
  5
271
331
2A4
  5
2A2
331
282
  5
280
331
293
  5
291
331
271
  5
26F
331
2A2
  5
2A0
331
280
  5
27E
331
26F
  5
26D
331
2B3
  5
265
331
2A0
  5
29E
331
2B1
  5
2AF
331
28F
  5
28D
331
26D
  5
26B
331
27E
  5
27C
331
2AF
  5
2AD
331
28D
  5
28B
331
26B
  5
267
331
29E
  5
29C
331
27C
  5
27A
331
2AD
  5
2AB
331
28B
  5
289
331
29C
  5
29A
331
27A
  5
278
331
2AB
  5
2A9
331
289
  5
287
331
29A
  5
298
331
278
  5
276
331
2A9
  5
2A7
331
287
  5
285
331
298
  5
296
331
276
  5
274
331
2A7
  5
2A5
331
285
  5
283
331
266
  5
2B1
331
296
  5
294
331
274
  5
272
331
2A5
  5
2A3
331
283
  5
281
331
294
  5
292
331
272
  5
270
331
2A3
  5
2A1
331
281
  5
27F
331
292
  5
290
331
270
  5
26E
331
2A1
  5
29F
331
290
  5
28E
331
26E
  5
26C
331
27F
  5
27D
331
2B2
  5
61
331
2B0
  5
2AE
331
28E
  5
28C
331
26C
  5
26A
331
29F
  5
29D
331
27D
  5
27B
331
2AE
  5
2AC
331
28C
  5
28A
331
26A
  5
266
331
29D
  5
29B
331
27B
  5
279
  0
LAYOUT
  5
23A
102
{ACAD_XDICTIONARY
360
2FE
102
}
102
{ACAD_REACTORS
330
231
102
}
330
231
100
AcDbPlotSettings
  1

  2
CutePDF Writer
  4

  6

 40
0.0
 41
0.0
 42
0.0
 43
0.0
 44
0.0
 45
0.0
 46
0.0
 47
0.0
 48
0.0
 49
0.0
140
0.0
141
0.0
142
1.0
143
1.0
 70
   688
 72
     0
 73
     0
 74
     5
  7

 75
    16
147
1.0
148
0.0
149
0.0
100
AcDbLayout
  1
Layout1
 70
     0
 71
     1
 10
0.0
 20
0.0
 11
12.0
 21
9.0
 12
0.0
 22
0.0
 32
0.0
 14
1.000000000000000E+20
 24
1.000000000000000E+20
 34
1.000000000000000E+20
 15
-1.000000000000000E+20
 25
-1.000000000000000E+20
 35
-1.000000000000000E+20
146
0.0
 13
0.0
 23
0.0
 33
0.0
 16
1.0
 26
0.0
 36
0.0
 17
0.0
 27
1.0
 37
0.0
 76
     0
330
237
  0
LAYOUT
  5
23E
102
{ACAD_XDICTIONARY
360
300
102
}
102
{ACAD_REACTORS
330
231
102
}
330
231
100
AcDbPlotSettings
  1

  2
CutePDF Writer
  4

  6

 40
0.0
 41
0.0
 42
0.0
 43
0.0
 44
0.0
 45
0.0
 46
0.0
 47
0.0
 48
0.0
 49
0.0
140
0.0
141
0.0
142
1.0
143
1.0
 70
  1712
 72
     0
 73
     0
 74
     0
  7

 75
     0
147
1.0
148
0.0
149
0.0
100
AcDbLayout
  1
Model
 70
     1
 71
     0
 10
0.0
 20
0.0
 11
12.0
 21
9.0
 12
0.0
 22
0.0
 32
0.0
 14
0.0
 24
0.0
 34
0.0
 15
0.0
 25
0.0
 35
0.0
146
0.0
 13
0.0
 23
0.0
 33
0.0
 16
1.0
 26
0.0
 36
0.0
 17
0.0
 27
1.0
 37
0.0
 76
     0
330
23B
331
256
  0
MATERIAL
  5
1E9
102
{ACAD_XDICTIONARY
360
1EA
102
}
102
{ACAD_REACTORS
330
1E0
102
}
330
1E0
100
AcDbMaterial
  1
ByBlock
 72
     0
 43
0.0208333333333333
 43
0.0
 43
0.0
 43
0.0
 43
0.0
 43
0.0208333333333333
 43
0.0
 43
0.0
 43
0.0
 43
0.0
 43
1.0
 43
0.0
 43
0.0
 43
0.0
 43
0.0
 43
1.0
 77
     0
 47
0.0208333333333333
 47
0.0
 47
0.0
 47
0.0
 47
0.0
 47
0.0208333333333333
 47
0.0
 47
0.0
 47
0.0
 47
0.0
 47
1.0
 47
0.0
 47
0.0
 47
0.0
 47
0.0
 47
1.0
171
     0
 49
0.0208333333333333
 49
0.0
 49
0.0
 49
0.0
 49
0.0
 49
0.0208333333333333
 49
0.0
 49
0.0
 49
0.0
 49
0.0
 49
1.0
 49
0.0
 49
0.0
 49
0.0
 49
0.0
 49
1.0
175
     0
142
0.0208333333333333
142
0.0
142
0.0
142
0.0
142
0.0
142
0.0208333333333333
142
0.0
142
0.0
142
0.0
142
0.0
142
1.0
142
0.0
142
0.0
142
0.0
142
0.0
142
1.0
179
     0
144
0.0208333333333333
144
0.0
144
0.0
144
0.0
144
0.0
144
0.0208333333333333
144
0.0
144
0.0
144
0.0
144
0.0
144
1.0
144
0.0
144
0.0
144
0.0
144
0.0
144
1.0
147
0.0208333333333333
147
0.0
147
0.0
147
0.0
147
0.0
147
0.0208333333333333
147
0.0
147
0.0
147
0.0
147
0.0
147
1.0
147
0.0
147
0.0
147
0.0
147
0.0
147
1.0
  0
MATERIAL
  5
1E1
102
{ACAD_XDICTIONARY
360
1E2
102
}
102
{ACAD_REACTORS
330
1E0
102
}
330
1E0
100
AcDbMaterial
  1
ByLayer
 72
     0
 43
0.0208333333333333
 43
0.0
 43
0.0
 43
0.0
 43
0.0
 43
0.0208333333333333
 43
0.0
 43
0.0
 43
0.0
 43
0.0
 43
1.0
 43
0.0
 43
0.0
 43
0.0
 43
0.0
 43
1.0
 77
     0
 47
0.0208333333333333
 47
0.0
 47
0.0
 47
0.0
 47
0.0
 47
0.0208333333333333
 47
0.0
 47
0.0
 47
0.0
 47
0.0
 47
1.0
 47
0.0
 47
0.0
 47
0.0
 47
0.0
 47
1.0
171
     0
 49
0.0208333333333333
 49
0.0
 49
0.0
 49
0.0
 49
0.0
 49
0.0208333333333333
 49
0.0
 49
0.0
 49
0.0
 49
0.0
 49
1.0
 49
0.0
 49
0.0
 49
0.0
 49
0.0
 49
1.0
175
     0
142
0.0208333333333333
142
0.0
142
0.0
142
0.0
142
0.0
142
0.0208333333333333
142
0.0
142
0.0
142
0.0
142
0.0
142
1.0
142
0.0
142
0.0
142
0.0
142
0.0
142
1.0
179
     0
144
0.0208333333333333
144
0.0
144
0.0
144
0.0
144
0.0
144
0.0208333333333333
144
0.0
144
0.0
144
0.0
144
0.0
144
1.0
144
0.0
144
0.0
144
0.0
144
0.0
144
1.0
147
0.0208333333333333
147
0.0
147
0.0
147
0.0
147
0.0
147
0.0208333333333333
147
0.0
147
0.0
147
0.0
147
0.0
147
1.0
147
0.0
147
0.0
147
0.0
147
0.0
147
1.0
  0
MATERIAL
  5
1F1
102
{ACAD_XDICTIONARY
360
1F2
102
}
102
{ACAD_REACTORS
330
1E0
102
}
330
1E0
100
AcDbMaterial
  1
Global
 72
     0
 43
0.0208333333333333
 43
0.0
 43
0.0
 43
0.0
 43
0.0
 43
0.0208333333333333
 43
0.0
 43
0.0
 43
0.0
 43
0.0
 43
1.0
 43
0.0
 43
0.0
 43
0.0
 43
0.0
 43
1.0
 77
     0
 47
0.0208333333333333
 47
0.0
 47
0.0
 47
0.0
 47
0.0
 47
0.0208333333333333
 47
0.0
 47
0.0
 47
0.0
 47
0.0
 47
1.0
 47
0.0
 47
0.0
 47
0.0
 47
0.0
 47
1.0
171
     0
 49
0.0208333333333333
 49
0.0
 49
0.0
 49
0.0
 49
0.0
 49
0.0208333333333333
 49
0.0
 49
0.0
 49
0.0
 49
0.0
 49
1.0
 49
0.0
 49
0.0
 49
0.0
 49
0.0
 49
1.0
175
     0
142
0.0208333333333333
142
0.0
142
0.0
142
0.0
142
0.0
142
0.0208333333333333
142
0.0
142
0.0
142
0.0
142
0.0
142
1.0
142
0.0
142
0.0
142
0.0
142
0.0
142
1.0
179
     0
144
0.0208333333333333
144
0.0
144
0.0
144
0.0
144
0.0
144
0.0208333333333333
144
0.0
144
0.0
144
0.0
144
0.0
144
1.0
144
0.0
144
0.0
144
0.0
144
0.0
144
1.0
147
0.0208333333333333
147
0.0
147
0.0
147
0.0
147
0.0
147
0.0208333333333333
147
0.0
147
0.0
147
0.0
147
0.0
147
1.0
147
0.0
147
0.0
147
0.0
147
0.0
147
1.0
  0
MLEADERSTYLE
  5
236
102
{ACAD_REACTORS
330
235
102
}
330
235
100
AcDbMLeaderStyle
170
     2
171
     1
172
     0
 90
        2
 40
0.0
 41
0.0
173
     1
 91
-1056964608
340
22A
 92
       -2
290
     1
 42
0.09
291
     1
 43
0.36
  3
Standard
 44
0.18
300

342
225
174
     1
178
     6
175
     1
176
     0
 93
-1056964608
 45
0.18
292
     0
297
     0
 46
0.18
 94
-1056964608
 47
1.0
 49
1.0
140
1.0
293
     1
141
0.0
294
     1
177
     0
142
1.0
295
     0
296
     0
143
0.125
1001
ACAD_MLEADERVER
1070
     2
  0
MLINESTYLE
  5
22F
102
{ACAD_REACTORS
330
22E
102
}
330
22E
100
AcDbMlineStyle
  2
STANDARD
 70
     0
  3

 62
   256
 51
90.0
 52
90.0
 71
     2
 49
0.5
 62
   256
  6
BYLAYER
 49
-0.5
 62
   256
  6
BYLAYER
  0
ACDBPLACEHOLDER
  5
1DF
102
{ACAD_REACTORS
330
1DE
102
}
330
1DE
  0
SCALE
  5
213
102
{ACAD_REACTORS
330
212
102
}
330
212
100
AcDbScale
 70
     0
300
1:1
140
1.0
141
1.0
290
     1
  0
SCALE
  5
214
102
{ACAD_REACTORS
330
212
102
}
330
212
100
AcDbScale
 70
     0
300
1/128" = 1'-0"
140
0.0078125
141
12.0
290
     0
  0
SCALE
  5
215
102
{ACAD_REACTORS
330
212
102
}
330
212
100
AcDbScale
 70
     0
300
1/64" = 1'-0"
140
0.015625
141
12.0
290
     0
  0
SCALE
  5
216
102
{ACAD_REACTORS
330
212
102
}
330
212
100
AcDbScale
 70
     0
300
1/32" = 1'-0"
140
0.03125
141
12.0
290
     0
  0
SCALE
  5
217
102
{ACAD_REACTORS
330
212
102
}
330
212
100
AcDbScale
 70
     0
300
1/16" = 1'-0"
140
0.0625
141
12.0
290
     0
  0
SCALE
  5
218
102
{ACAD_REACTORS
330
212
102
}
330
212
100
AcDbScale
 70
     0
300
3/32" = 1'-0"
140
0.09375
141
12.0
290
     0
  0
SCALE
  5
219
102
{ACAD_REACTORS
330
212
102
}
330
212
100
AcDbScale
 70
     0
300
1/8" = 1'-0"
140
0.125
141
12.0
290
     0
  0
SCALE
  5
21A
102
{ACAD_REACTORS
330
212
102
}
330
212
100
AcDbScale
 70
     0
300
3/16" = 1'-0"
140
0.1875
141
12.0
290
     0
  0
SCALE
  5
21B
102
{ACAD_REACTORS
330
212
102
}
330
212
100
AcDbScale
 70
     0
300
1/4" = 1'-0"
140
0.25
141
12.0
290
     0
  0
SCALE
  5
21C
102
{ACAD_REACTORS
330
212
102
}
330
212
100
AcDbScale
 70
     0
300
3/8" = 1'-0"
140
0.375
141
12.0
290
     0
  0
SCALE
  5
21D
102
{ACAD_REACTORS
330
212
102
}
330
212
100
AcDbScale
 70
     0
300
1/2" = 1'-0"
140
0.5
141
12.0
290
     0
  0
SCALE
  5
21E
102
{ACAD_REACTORS
330
212
102
}
330
212
100
AcDbScale
 70
     0
300
3/4" = 1'-0"
140
0.75
141
12.0
290
     0
  0
SCALE
  5
21F
102
{ACAD_REACTORS
330
212
102
}
330
212
100
AcDbScale
 70
     0
300
1" = 1'-0"
140
1.0
141
12.0
290
     0
  0
SCALE
  5
220
102
{ACAD_REACTORS
330
212
102
}
330
212
100
AcDbScale
 70
     0
300
1-1/2" = 1'-0"
140
1.5
141
12.0
290
     0
  0
SCALE
  5
221
102
{ACAD_REACTORS
330
212
102
}
330
212
100
AcDbScale
 70
     0
300
3" = 1'-0"
140
3.0
141
12.0
290
     0
  0
SCALE
  5
222
102
{ACAD_REACTORS
330
212
102
}
330
212
100
AcDbScale
 70
     0
300
6" = 1'-0"
140
6.0
141
12.0
290
     0
  0
SCALE
  5
223
102
{ACAD_REACTORS
330
212
102
}
330
212
100
AcDbScale
 70
     0
300
1'-0" = 1'-0"
140
12.0
141
12.0
290
     0
  0
TABLESTYLE
  5
234
102
{ACAD_XDICTIONARY
360
2C5
102
}
102
{ACAD_REACTORS
330
233
102
}
330
233
100
AcDbTableStyle
  3
Standard
 70
     0
 71
     0
 40
0.06
 41
0.06
280
     0
281
     0
  7
Standard
140
0.18
170
     2
 62
     0
 63
     7
283
     0
274
    -2
284
     1
 64
     0
275
    -2
285
     1
 65
     0
276
    -2
286
     1
 66
     0
277
    -2
287
     1
 67
     0
278
    -2
288
     1
 68
     0
279
    -2
289
     1
 69
     0
  7
Standard
140
0.25
170
     5
 62
     0
 63
     7
283
     0
274
    -2
284
     1
 64
     0
275
    -2
285
     1
 65
     0
276
    -2
286
     1
 66
     0
277
    -2
287
     1
 67
     0
278
    -2
288
     1
 68
     0
279
    -2
289
     1
 69
     0
  7
Standard
140
0.18
170
     5
 62
     0
 63
     7
283
     0
274
    -2
284
     1
 64
     0
275
    -2
285
     1
 65
     0
276
    -2
286
     1
 66
     0
277
    -2
287
     1
 67
     0
278
    -2
288
     1
 68
     0
279
    -2
289
     1
 69
     0
  0
VISUALSTYLE
  5
1FF
102
{ACAD_XDICTIONARY
360
2D6
102
}
102
{ACAD_REACTORS
330
1F9
102
}
330
1F9
100
AcDbVisualStyle
  2
2dWireframe
 70
     4
 71
     0
 72
     2
 73
     0
 90
        0
 40
-0.6
 41
-30.0
 62
     5
 63
     7
 74
     1
 91
        4
 64
     7
 65
   257
 75
     1
175
     1
 42
1.0
 92
        0
 66
   257
 43
1.0
 76
     1
 77
     6
 78
     2
 67
     7
 79
     5
170
     0
171
     0
290
     0
174
     0
 93
        1
 44
0.0
173
     0
291
     0
 45
0.0
1001
ACAD
1000
AcDbSavedByObjectVersion
1070
     0
  0
VISUALSTYLE
  5
1FE
102
{ACAD_XDICTIONARY
360
2D4
102
}
102
{ACAD_REACTORS
330
1F9
102
}
330
1F9
100
AcDbVisualStyle
  2
Basic
 70
     7
 71
     1
 72
     0
 73
     1
 90
        0
 40
-0.6
 41
-30.0
 62
     5
 63
     7
 74
     0
 91
        4
 64
     7
 65
   257
 75
     1
175
     1
 42
1.0
 92
        8
 66
     7
 43
1.0
 76
     1
 77
     6
 78
     2
 67
     7
 79
     5
170
     0
171
     0
290
     0
174
     0
 93
        1
 44
0.0
173
     0
291
     1
 45
0.0
1001
ACAD
1000
AcDbSavedByObjectVersion
1070
     0
  0
VISUALSTYLE
  5
205
102
{ACAD_XDICTIONARY
360
2E2
102
}
102
{ACAD_REACTORS
330
1F9
102
}
330
1F9
100
AcDbVisualStyle
  2
Brighten
 70
    12
 71
     2
 72
     2
 73
     0
 90
        0
 40
-0.6
 41
-30.0
 62
     5
 63
     7
 74
     1
 91
        4
 64
     7
 65
   257
 75
     1
175
     1
 42
1.0
 92
        8
 66
     7
 43
1.0
 76
     1
 77
     6
 78
     2
 67
     7
 79
     5
170
     0
171
     0
290
     0
174
     0
 93
        1
 44
50.0
173
     0
291
     1
 45
0.0
1001
ACAD
1000
AcDbSavedByObjectVersion
1070
     0
  0
VISUALSTYLE
  5
209
102
{ACAD_XDICTIONARY
360
2EA
102
}
102
{ACAD_REACTORS
330
1F9
102
}
330
1F9
100
AcDbVisualStyle
  2
ColorChange
 70
    16
 71
     2
 72
     2
 73
     3
 90
        0
 40
-0.6
 41
-30.0
 62
     5
 63
     8
 74
     1
 91
        4
 64
     7
 65
   257
 75
     1
175
     1
 42
1.0
 92
        8
 66
     8
 43
1.0
 76
     1
 77
     6
 78
     2
 67
     7
 79
     5
170
     0
171
     0
290
     0
174
     0
 93
        1
 44
0.0
173
     0
291
     1
 45
0.0
1001
ACAD
1000
AcDbSavedByObjectVersion
1070
     0
  0
VISUALSTYLE
  5
202
102
{ACAD_XDICTIONARY
360
2DC
102
}
102
{ACAD_REACTORS
330
1F9
102
}
330
1F9
100
AcDbVisualStyle
  2
Conceptual
 70
     9
 71
     3
 72
     2
 73
     0
 90
        0
 40
-0.6
 41
-30.0
 62
     5
 63
     7
 74
     2
 91
        2
 64
     7
 65
   257
 75
     1
175
     1
 42
179.0
 92
        8
 66
     7
 43
1.0
 76
     1
 77
     6
 78
     2
 67
     7
 79
     3
170
     0
171
     0
290
     0
174
     0
 93
        1
 44
0.0
173
     0
291
     0
 45
0.0
1001
ACAD
1000
AcDbSavedByObjectVersion
1070
     0
  0
VISUALSTYLE
  5
204
102
{ACAD_XDICTIONARY
360
2E0
102
}
102
{ACAD_REACTORS
330
1F9
102
}
330
1F9
100
AcDbVisualStyle
  2
Dim
 70
    11
 71
     2
 72
     2
 73
     0
 90
        0
 40
-0.6
 41
-30.0
 62
     5
 63
     7
 74
     1
 91
        4
 64
     7
 65
   257
 75
     1
175
     1
 42
1.0
 92
        8
 66
     7
 43
1.0
 76
     1
 77
     6
 78
     2
 67
     7
 79
     5
170
     0
171
     0
290
     0
174
     0
 93
        1
 44
-50.0
173
     0
291
     1
 45
0.0
1001
ACAD
1000
AcDbSavedByObjectVersion
1070
     0
  0
VISUALSTYLE
  5
211
102
{ACAD_XDICTIONARY
360
2FA
102
}
102
{ACAD_REACTORS
330
1F9
102
}
330
1F9
100
AcDbVisualStyle
  2
EdgeColorOff
 70
    22
 71
     2
 72
     2
 73
     0
 90
        0
 40
-0.6
 41
-30.0
 62
     5
 63
     7
 74
     1
 91
        4
 64
     7
 65
   257
 75
     1
175
     1
 42
1.0
 92
        8
 66
     7
 43
1.0
 76
     1
 77
     6
 78
     2
 67
     7
 79
     5
170
     0
171
     0
290
     0
174
     0
 93
        1
 44
0.0
173
     0
291
     1
 45
0.0
1001
ACAD
1000
AcDbSavedByObjectVersion
1070
     0
  0
VISUALSTYLE
  5
208
102
{ACAD_XDICTIONARY
360
2E8
102
}
102
{ACAD_REACTORS
330
1F9
102
}
330
1F9
100
AcDbVisualStyle
  2
Facepattern
 70
    15
 71
     2
 72
     2
 73
     0
 90
        0
 40
-0.6
 41
-30.0
 62
     5
 63
     7
 74
     1
 91
        4
 64
     7
 65
   257
 75
     1
175
     1
 42
1.0
 92
        8
 66
     7
 43
1.0
 76
     1
 77
     6
 78
     2
 67
     7
 79
     5
170
     0
171
     0
290
     0
174
     0
 93
        1
 44
0.0
173
     0
291
     1
 45
0.0
1001
ACAD
1000
AcDbSavedByObjectVersion
1070
     0
  0
VISUALSTYLE
  5
1FA
102
{ACAD_XDICTIONARY
360
2CC
102
}
102
{ACAD_REACTORS
330
1F9
102
}
330
1F9
100
AcDbVisualStyle
  2
Flat
 70
     0
 71
     2
 72
     1
 73
     1
 90
        2
 40
-0.6
 41
30.0
 62
     5
 63
     7
 74
     0
 91
        0
 64
     7
 65
   257
 75
     1
175
     1
 42
1.0
 92
        8
 66
     7
 43
1.0
 76
     1
 77
     6
 78
     2
 67
     7
 79
     5
170
     0
171
     0
290
     0
174
     0
 93
       13
 44
0.0
173
     0
291
     1
 45
0.0
1001
ACAD
1000
AcDbSavedByObjectVersion
1070
     0
  0
VISUALSTYLE
  5
1FB
102
{ACAD_XDICTIONARY
360
2CE
102
}
102
{ACAD_REACTORS
330
1F9
102
}
330
1F9
100
AcDbVisualStyle
  2
FlatWithEdges
 70
     1
 71
     2
 72
     1
 73
     1
 90
        2
 40
-0.6
 41
30.0
 62
     5
 63
     7
 74
     1
 91
        0
 64
     7
 65
   257
 75
     1
175
     1
 42
1.0
 92
        0
 66
   257
 43
1.0
 76
     1
 77
     6
 78
     2
 67
     7
 79
     5
170
     0
171
     0
290
     0
174
     0
 93
       13
 44
0.0
173
     0
291
     1
 45
0.0
1001
ACAD
1000
AcDbSavedByObjectVersion
1070
     0
  0
VISUALSTYLE
  5
1FC
102
{ACAD_XDICTIONARY
360
2D0
102
}
102
{ACAD_REACTORS
330
1F9
102
}
330
1F9
100
AcDbVisualStyle
  2
Gouraud
 70
     2
 71
     2
 72
     2
 73
     1
 90
        2
 40
-0.6
 41
30.0
 62
     5
 63
     7
 74
     0
 91
        0
 64
     7
 65
   257
 75
     1
175
     1
 42
1.0
 92
        0
 66
     7
 43
1.0
 76
     1
 77
     6
 78
     2
 67
     7
 79
     5
170
     0
171
     0
290
     0
174
     0
 93
       13
 44
0.0
173
     0
291
     1
 45
0.0
1001
ACAD
1000
AcDbSavedByObjectVersion
1070
     0
  0
VISUALSTYLE
  5
1FD
102
{ACAD_XDICTIONARY
360
2D2
102
}
102
{ACAD_REACTORS
330
1F9
102
}
330
1F9
100
AcDbVisualStyle
  2
GouraudWithEdges
 70
     3
 71
     2
 72
     2
 73
     1
 90
        2
 40
-0.6
 41
30.0
 62
     5
 63
     7
 74
     1
 91
        0
 64
     7
 65
   257
 75
     1
175
     1
 42
1.0
 92
        0
 66
   257
 43
1.0
 76
     1
 77
     6
 78
     2
 67
     7
 79
     5
170
     0
171
     0
290
     0
174
     0
 93
       13
 44
0.0
173
     0
291
     1
 45
0.0
1001
ACAD
1000
AcDbSavedByObjectVersion
1070
     0
  0
VISUALSTYLE
  5
201
102
{ACAD_XDICTIONARY
360
2DA
102
}
102
{ACAD_REACTORS
330
1F9
102
}
330
1F9
100
AcDbVisualStyle
  2
Hidden
 70
     6
 71
     1
 72
     2
 73
     2
 90
        0
 40
-0.6
 41
-30.0
 62
     5
 63
     7
 74
     2
 91
        2
 64
     7
 65
   257
 75
     2
175
     1
 42
40.0
 92
        0
 66
   257
 43
1.0
 76
     1
 77
     6
 78
     2
 67
     7
 79
     3
170
     0
171
     0
290
     0
174
     0
 93
        1
 44
0.0
173
     0
291
     0
 45
0.0
1001
ACAD
1000
AcDbSavedByObjectVersion
1070
     0
  0
VISUALSTYLE
  5
20F
102
{ACAD_XDICTIONARY
360
2F6
102
}
102
{ACAD_REACTORS
330
1F9
102
}
330
1F9
100
AcDbVisualStyle
  2
JitterOff
 70
    20
 71
     2
 72
     2
 73
     0
 90
        0
 40
-0.6
 41
-30.0
 62
     5
 63
     7
 74
     1
 91
        4
 64
     7
 65
   257
 75
     1
175
     1
 42
1.0
 92
       10
 66
     7
 43
1.0
 76
     1
 77
     6
 78
     2
 67
     7
 79
     5
170
     0
171
     0
290
     0
174
     0
 93
        1
 44
0.0
173
     0
291
     1
 45
0.0
1001
ACAD
1000
AcDbSavedByObjectVersion
1070
     0
  0
VISUALSTYLE
  5
207
102
{ACAD_XDICTIONARY
360
2E6
102
}
102
{ACAD_REACTORS
330
1F9
102
}
330
1F9
100
AcDbVisualStyle
  2
Linepattern
 70
    14
 71
     2
 72
     2
 73
     0
 90
        0
 40
-0.6
 41
-30.0
 62
     5
 63
     7
 74
     1
 91
        4
 64
     7
 65
   257
 75
     7
175
     7
 42
1.0
 92
        8
 66
     7
 43
1.0
 76
     1
 77
     6
 78
     2
 67
     7
 79
     5
170
     0
171
     0
290
     0
174
     0
 93
        1
 44
0.0
173
     0
291
     1
 45
0.0
1001
ACAD
1000
AcDbSavedByObjectVersion
1070
     0
  0
VISUALSTYLE
  5
210
102
{ACAD_XDICTIONARY
360
2F8
102
}
102
{ACAD_REACTORS
330
1F9
102
}
330
1F9
100
AcDbVisualStyle
  2
OverhangOff
 70
    21
 71
     2
 72
     2
 73
     0
 90
        0
 40
-0.6
 41
-30.0
 62
     5
 63
     7
 74
     1
 91
        4
 64
     7
 65
   257
 75
     1
175
     1
 42
1.0
 92
        9
 66
     7
 43
1.0
 76
     1
 77
     6
 78
     2
 67
     7
 79
     5
170
     0
171
     0
290
     0
174
     0
 93
        1
 44
0.0
173
     0
291
     1
 45
0.0
1001
ACAD
1000
AcDbSavedByObjectVersion
1070
     0
  0
VISUALSTYLE
  5
203
102
{ACAD_XDICTIONARY
360
2DE
102
}
102
{ACAD_REACTORS
330
1F9
102
}
330
1F9
100
AcDbVisualStyle
  2
Realistic
 70
     8
 71
     2
 72
     3
 73
     0
 90
        2
 40
-0.6
 41
30.0
 62
     5
 63
     7
 74
     0
 91
        0
 64
     7
 65
   257
 75
     1
175
     1
 42
1.0
 92
        8
 66
   257
 43
1.0
 76
     1
 77
     6
 78
     2
 67
     7
 79
     3
170
     0
171
     0
290
     0
174
     0
 93
       13
 44
0.0
173
     0
291
     0
 45
0.0
1001
ACAD
1000
AcDbSavedByObjectVersion
1070
     0
  0
VISUALSTYLE
  5
20E
102
{ACAD_XDICTIONARY
360
2F4
102
}
102
{ACAD_REACTORS
330
1F9
102
}
330
1F9
100
AcDbVisualStyle
  2
Shaded
 70
    27
 71
     2
 72
     2
 73
     1
 90
        2
 40
-0.6
 41
30.0
 62
     5
 63
     7
 74
     0
 91
        4
 64
     7
 65
   257
 75
     1
175
     1
 42
1.0
 92
        8
 66
   257
 43
1.0
 76
     1
 77
     6
 78
     2
 67
     8
 79
     3
170
     0
171
     0
290
     0
174
     0
 93
        5
 44
0.0
173
     0
291
     0
 45
0.0
1001
ACAD
1000
AcDbSavedByObjectVersion
1070
     0
  0
VISUALSTYLE
  5
20D
102
{ACAD_XDICTIONARY
360
2F2
102
}
102
{ACAD_REACTORS
330
1F9
102
}
330
1F9
100
AcDbVisualStyle
  2
Shaded with edges
 70
    26
 71
     2
 72
     2
 73
     1
 90
        2
 40
-0.6
 41
30.0
 62
     5
 63
     7
 74
     1
 91
       10
 64
     7
 65
   257
 75
     2
175
     1
 42
1.0
 92
        8
 66
   257
 43
1.0
 76
     1
 77
     6
 78
     2
 67
     7
 79
     3
170
     0
171
     0
290
     0
174
     0
 93
        5
 44
0.0
173
     0
291
     0
 45
0.0
1001
ACAD
1000
AcDbSavedByObjectVersion
1070
     0
  0
VISUALSTYLE
  5
20A
102
{ACAD_XDICTIONARY
360
2EC
102
}
102
{ACAD_REACTORS
330
1F9
102
}
330
1F9
100
AcDbVisualStyle
  2
Shades of Gray
 70
    23
 71
     2
 72
     2
 73
     3
 90
        0
 40
-0.6
 41
-30.0
 62
     5
 63
     7
 74
     2
 91
        2
 64
     7
 65
     7
 75
     1
175
     1
 42
40.0
 92
        8
 66
     7
 43
1.0
 76
     1
 77
     6
 78
     2
 67
     7
 79
     3
170
     0
171
     0
290
     0
174
     0
 93
        1
 44
0.0
173
     0
291
     0
 45
0.0
1001
ACAD
1000
AcDbSavedByObjectVersion
1070
     0
  0
VISUALSTYLE
  5
20B
102
{ACAD_XDICTIONARY
360
2EE
102
}
102
{ACAD_REACTORS
330
1F9
102
}
330
1F9
100
AcDbVisualStyle
  2
Sketchy
 70
    24
 71
     1
 72
     2
 73
     2
 90
        0
 40
-0.6
 41
-30.0
 62
     5
 63
     7
 74
     2
 91
        2
 64
     7
 65
     7
 75
     1
175
     1
 42
40.0
 92
       11
 66
     7
 43
1.0
 76
     1
 77
     6
 78
     2
 67
     7
 79
     6
170
     0
171
     0
290
     0
174
     0
 93
        1
 44
0.0
173
     0
291
     0
 45
0.0
1001
ACAD
1000
AcDbSavedByObjectVersion
1070
     0
  0
VISUALSTYLE
  5
206
102
{ACAD_XDICTIONARY
360
2E4
102
}
102
{ACAD_REACTORS
330
1F9
102
}
330
1F9
100
AcDbVisualStyle
  2
Thicken
 70
    13
 71
     2
 72
     2
 73
     0
 90
        0
 40
-0.6
 41
-30.0
 62
     5
 63
     7
 74
     1
 91
        4
 64
     7
 65
   257
 75
     1
175
     1
 42
1.0
 92
       12
 66
     7
 43
1.0
 76
     1
 77
     6
 78
     2
 67
     7
 79
     5
170
     0
171
     0
290
     0
174
     0
 93
        1
 44
0.0
173
     0
291
     1
 45
0.0
1001
ACAD
1000
AcDbSavedByObjectVersion
1070
     0
  0
VISUALSTYLE
  5
200
102
{ACAD_XDICTIONARY
360
2D8
102
}
102
{ACAD_REACTORS
330
1F9
102
}
330
1F9
100
AcDbVisualStyle
  2
Wireframe
 70
     5
 71
     0
 72
     2
 73
     0
 90
        0
 40
-0.6
 41
-30.0
 62
     5
 63
     7
 74
     1
 91
        4
 64
     7
 65
   257
 75
     1
175
     1
 42
1.0
 92
        0
 66
   257
 43
1.0
 76
     1
 77
     6
 78
     2
 67
     7
 79
     3
170
     0
171
     0
290
     0
174
     0
 93
        1
 44
0.0
173
     0
291
     0
 45
0.0
1001
ACAD
1000
AcDbSavedByObjectVersion
1070
     0
  0
VISUALSTYLE
  5
20C
102
{ACAD_XDICTIONARY
360
2F0
102
}
102
{ACAD_REACTORS
330
1F9
102
}
330
1F9
100
AcDbVisualStyle
  2
X-Ray
 70
    25
 71
     2
 72
     2
 73
     1
 90
        1
 40
0.5
 41
-30.0
 62
     5
 63
     7
 74
     1
 91
        0
 64
     7
 65
   257
 75
     1
175
     1
 42
1.0
 92
        8
 66
     7
 43
1.0
 76
     1
 77
     6
 78
     2
 67
     7
 79
     3
170
     0
171
     0
290
     0
174
     0
 93
       13
 44
0.0
173
     0
291
     0
 45
0.0
1001
ACAD
1000
AcDbSavedByObjectVersion
1070
     0
  0
DICTIONARYVAR
  5
2BC
102
{ACAD_REACTORS
330
2B8
102
}
330
2B8
100
DictionaryVariables
280
     0
  1
1:1
  0
DICTIONARYVAR
  5
2BA
102
{ACAD_REACTORS
330
2B8
102
}
330
2B8
100
DictionaryVariables
280
     0
  1
STANDARD
  0
DICTIONARYVAR
  5
2B9
102
{ACAD_REACTORS
330
2B8
102
}
330
2B8
100
DictionaryVariables
280
     0
  1
STANDARD
  0
DICTIONARYVAR
  5
2C3
102
{ACAD_REACTORS
330
2B8
102
}
330
2B8
100
DictionaryVariables
280
     0
  1
2
  0
DICTIONARYVAR
  5
2C2
102
{ACAD_REACTORS
330
2B8
102
}
330
2B8
100
DictionaryVariables
280
     0
  1
1
  0
DICTIONARYVAR
  5
2C1
102
{ACAD_REACTORS
330
2B8
102
}
330
2B8
100
DictionaryVariables
280
     0
  1
0
  0
DICTIONARYVAR
  5
2BE
102
{ACAD_REACTORS
330
2B8
102
}
330
2B8
100
DictionaryVariables
280
     0
  1
0
  0
DICTIONARYVAR
  5
2BF
102
{ACAD_REACTORS
330
2B8
102
}
330
2B8
100
DictionaryVariables
280
     0
  1
0
  0
DICTIONARYVAR
  5
2BD
102
{ACAD_REACTORS
330
2B8
102
}
330
2B8
100
DictionaryVariables
280
     0
  1
2
  0
DICTIONARYVAR
  5
2BB
102
{ACAD_REACTORS
330
2B8
102
}
330
2B8
100
DictionaryVariables
280
     0
  1
1
  0
DICTIONARYVAR
  5
2C0
102
{ACAD_REACTORS
330
2B8
102
}
330
2B8
100
DictionaryVariables
280
     0
  1
127
  0
DICTIONARYVAR
  5
2C4
102
{ACAD_REACTORS
330
2B8
102
}
330
2B8
100
DictionaryVariables
280
     0
  1
2
  0
XRECORD
  5
2B7
102
{ACAD_REACTORS
330
2B5
102
}
330
2B5
100
AcDbXrecord
280
     1
330
61
  0
DICTIONARY
  5
2FE
330
23A
100
AcDbDictionary
280
     1
281
     1
  3
ACAD_XREC_ROUNDTRIP
360
2FF
  0
DICTIONARY
  5
300
330
23E
100
AcDbDictionary
280
     1
281
     1
  3
ACAD_XREC_ROUNDTRIP
360
301
  0
DICTIONARY
  5
1EA
330
1E9
100
AcDbDictionary
280
     1
281
     1
  3
ACAD_XREC_ROUNDTRIP
360
2CA
  3
BUMPTILE
360
1EC
  3
DIFFUSETILE
360
1EB
  3
OPACITYTILE
360
1EF
  3
REFLECTIONTILE
360
1EE
  3
REFRACTIONTILE
360
1F0
  3
SPECULARTILE
360
1ED
  0
DICTIONARY
  5
1E2
330
1E1
100
AcDbDictionary
280
     1
281
     1
  3
ACAD_XREC_ROUNDTRIP
360
2C9
  3
BUMPTILE
360
1E4
  3
DIFFUSETILE
360
1E3
  3
OPACITYTILE
360
1E7
  3
REFLECTIONTILE
360
1E6
  3
REFRACTIONTILE
360
1E8
  3
SPECULARTILE
360
1E5
  0
DICTIONARY
  5
1F2
330
1F1
100
AcDbDictionary
280
     1
281
     1
  3
ACAD_XREC_ROUNDTRIP
360
2CB
  3
BUMPTILE
360
1F4
  3
DIFFUSETILE
360
1F3
  3
OPACITYTILE
360
1F7
  3
REFLECTIONTILE
360
1F6
  3
REFRACTIONTILE
360
1F8
  3
SPECULARTILE
360
1F5
  0
DICTIONARY
  5
2C5
330
234
100
AcDbDictionary
280
     1
281
     1
  3
ACAD_ROUNDTRIP_2008_TABLESTYLE_CELLSTYLEMAP
360
2C6
  3
ACAD_XREC_ROUNDTRIP
360
2FC
  0
DICTIONARY
  5
2D6
330
1FF
100
AcDbDictionary
280
     1
281
     1
  3
ACAD_XREC_ROUNDTRIP
360
2D7
  0
DICTIONARY
  5
2D4
330
1FE
100
AcDbDictionary
280
     1
281
     1
  3
ACAD_XREC_ROUNDTRIP
360
2D5
  0
DICTIONARY
  5
2E2
330
205
100
AcDbDictionary
280
     1
281
     1
  3
ACAD_XREC_ROUNDTRIP
360
2E3
  0
DICTIONARY
  5
2EA
330
209
100
AcDbDictionary
280
     1
281
     1
  3
ACAD_XREC_ROUNDTRIP
360
2EB
  0
DICTIONARY
  5
2DC
330
202
100
AcDbDictionary
280
     1
281
     1
  3
ACAD_XREC_ROUNDTRIP
360
2DD
  0
DICTIONARY
  5
2E0
330
204
100
AcDbDictionary
280
     1
281
     1
  3
ACAD_XREC_ROUNDTRIP
360
2E1
  0
DICTIONARY
  5
2FA
330
211
100
AcDbDictionary
280
     1
281
     1
  3
ACAD_XREC_ROUNDTRIP
360
2FB
  0
DICTIONARY
  5
2E8
330
208
100
AcDbDictionary
280
     1
281
     1
  3
ACAD_XREC_ROUNDTRIP
360
2E9
  0
DICTIONARY
  5
2CC
330
1FA
100
AcDbDictionary
280
     1
281
     1
  3
ACAD_XREC_ROUNDTRIP
360
2CD
  0
DICTIONARY
  5
2CE
330
1FB
100
AcDbDictionary
280
     1
281
     1
  3
ACAD_XREC_ROUNDTRIP
360
2CF
  0
DICTIONARY
  5
2D0
330
1FC
100
AcDbDictionary
280
     1
281
     1
  3
ACAD_XREC_ROUNDTRIP
360
2D1
  0
DICTIONARY
  5
2D2
330
1FD
100
AcDbDictionary
280
     1
281
     1
  3
ACAD_XREC_ROUNDTRIP
360
2D3
  0
DICTIONARY
  5
2DA
330
201
100
AcDbDictionary
280
     1
281
     1
  3
ACAD_XREC_ROUNDTRIP
360
2DB
  0
DICTIONARY
  5
2F6
330
20F
100
AcDbDictionary
280
     1
281
     1
  3
ACAD_XREC_ROUNDTRIP
360
2F7
  0
DICTIONARY
  5
2E6
330
207
100
AcDbDictionary
280
     1
281
     1
  3
ACAD_XREC_ROUNDTRIP
360
2E7
  0
DICTIONARY
  5
2F8
330
210
100
AcDbDictionary
280
     1
281
     1
  3
ACAD_XREC_ROUNDTRIP
360
2F9
  0
DICTIONARY
  5
2DE
330
203
100
AcDbDictionary
280
     1
281
     1
  3
ACAD_XREC_ROUNDTRIP
360
2DF
  0
DICTIONARY
  5
2F4
330
20E
100
AcDbDictionary
280
     1
281
     1
  3
ACAD_XREC_ROUNDTRIP
360
2F5
  0
DICTIONARY
  5
2F2
330
20D
100
AcDbDictionary
280
     1
281
     1
  3
ACAD_XREC_ROUNDTRIP
360
2F3
  0
DICTIONARY
  5
2EC
330
20A
100
AcDbDictionary
280
     1
281
     1
  3
ACAD_XREC_ROUNDTRIP
360
2ED
  0
DICTIONARY
  5
2EE
330
20B
100
AcDbDictionary
280
     1
281
     1
  3
ACAD_XREC_ROUNDTRIP
360
2EF
  0
DICTIONARY
  5
2E4
330
206
100
AcDbDictionary
280
     1
281
     1
  3
ACAD_XREC_ROUNDTRIP
360
2E5
  0
DICTIONARY
  5
2D8
330
200
100
AcDbDictionary
280
     1
281
     1
  3
ACAD_XREC_ROUNDTRIP
360
2D9
  0
DICTIONARY
  5
2F0
330
20C
100
AcDbDictionary
280
     1
281
     1
  3
ACAD_XREC_ROUNDTRIP
360
2F1
  0
XRECORD
  5
2FF
102
{ACAD_REACTORS
330
2FE
102
}
330
2FE
100
AcDbXrecord
280
     1
102
SHADEPLOT
 70
     0
102
SHADEPLOTRESLEVEL
 70
     2
102
SHADEPLOTCUSTOMDPI
 70
   300
  0
XRECORD
  5
301
102
{ACAD_REACTORS
330
300
102
}
330
300
100
AcDbXrecord
280
     1
102
SHADEPLOT
 70
     0
102
SHADEPLOTRESLEVEL
 70
     2
102
SHADEPLOTCUSTOMDPI
 70
   300
  0
XRECORD
  5
2CA
102
{ACAD_REACTORS
330
1EA
102
}
330
1EA
100
AcDbXrecord
280
     1
102
MATERIAL
148
0.0
149
0.0
149
0.0
 93
        0
 94
      127
282
     0
 72
     0
 77
     0
171
     0
175
     0
179
     0
273
     0
  0
XRECORD
  5
1EC
102
{ACAD_REACTORS
330
1EA
102
}
330
1EA
100
AcDbXrecord
280
     1
270
     1
271
     1
  0
XRECORD
  5
1EB
102
{ACAD_REACTORS
330
1EA
102
}
330
1EA
100
AcDbXrecord
280
     1
270
     1
271
     1
  0
XRECORD
  5
1EF
102
{ACAD_REACTORS
330
1EA
102
}
330
1EA
100
AcDbXrecord
280
     1
270
     1
271
     1
  0
XRECORD
  5
1EE
102
{ACAD_REACTORS
330
1EA
102
}
330
1EA
100
AcDbXrecord
280
     1
270
     1
271
     1
  0
XRECORD
  5
1F0
102
{ACAD_REACTORS
330
1EA
102
}
330
1EA
100
AcDbXrecord
280
     1
270
     1
271
     1
  0
XRECORD
  5
1ED
102
{ACAD_REACTORS
330
1EA
102
}
330
1EA
100
AcDbXrecord
280
     1
270
     1
271
     1
  0
XRECORD
  5
2C9
102
{ACAD_REACTORS
330
1E2
102
}
330
1E2
100
AcDbXrecord
280
     1
102
MATERIAL
148
0.0
149
0.0
149
0.0
 93
        0
 94
      127
282
     0
 72
     0
 77
     0
171
     0
175
     0
179
     0
273
     0
  0
XRECORD
  5
1E4
102
{ACAD_REACTORS
330
1E2
102
}
330
1E2
100
AcDbXrecord
280
     1
270
     1
271
     1
  0
XRECORD
  5
1E3
102
{ACAD_REACTORS
330
1E2
102
}
330
1E2
100
AcDbXrecord
280
     1
270
     1
271
     1
  0
XRECORD
  5
1E7
102
{ACAD_REACTORS
330
1E2
102
}
330
1E2
100
AcDbXrecord
280
     1
270
     1
271
     1
  0
XRECORD
  5
1E6
102
{ACAD_REACTORS
330
1E2
102
}
330
1E2
100
AcDbXrecord
280
     1
270
     1
271
     1
  0
XRECORD
  5
1E8
102
{ACAD_REACTORS
330
1E2
102
}
330
1E2
100
AcDbXrecord
280
     1
270
     1
271
     1
  0
XRECORD
  5
1E5
102
{ACAD_REACTORS
330
1E2
102
}
330
1E2
100
AcDbXrecord
280
     1
270
     1
271
     1
  0
XRECORD
  5
2CB
102
{ACAD_REACTORS
330
1F2
102
}
330
1F2
100
AcDbXrecord
280
     1
102
MATERIAL
148
0.0
149
0.0
149
0.0
 93
        0
 94
      127
282
     0
 72
     0
 77
     0
171
     0
175
     0
179
     0
273
     0
  0
XRECORD
  5
1F4
102
{ACAD_REACTORS
330
1F2
102
}
330
1F2
100
AcDbXrecord
280
     1
270
     1
271
     1
  0
XRECORD
  5
1F3
102
{ACAD_REACTORS
330
1F2
102
}
330
1F2
100
AcDbXrecord
280
     1
270
     1
271
     1
  0
XRECORD
  5
1F7
102
{ACAD_REACTORS
330
1F2
102
}
330
1F2
100
AcDbXrecord
280
     1
270
     1
271
     1
  0
XRECORD
  5
1F6
102
{ACAD_REACTORS
330
1F2
102
}
330
1F2
100
AcDbXrecord
280
     1
270
     1
271
     1
  0
XRECORD
  5
1F8
102
{ACAD_REACTORS
330
1F2
102
}
330
1F2
100
AcDbXrecord
280
     1
270
     1
271
     1
  0
XRECORD
  5
1F5
102
{ACAD_REACTORS
330
1F2
102
}
330
1F2
100
AcDbXrecord
280
     1
270
     1
271
     1
  0
CELLSTYLEMAP
  5
2C6
102
{ACAD_REACTORS
330
2C5
102
}
330
2C5
100
AcDbCellStyleMap
 90
        3
300
CELLSTYLE
  1
TABLEFORMAT_BEGIN
 90
        5
170
     1
 91
        0
 92
    32768
 62
   257
 93
        1
300
CONTENTFORMAT
  1
CONTENTFORMAT_BEGIN
 90
        0
 91
        0
 92
      512
 93
        0
300

 40
0.0
140
1.0
 94
        5
 62
     0
340
225
144
0.25
309
CONTENTFORMAT_END
171
     0
 94
        0
309
TABLEFORMAT_END
  1
CELLSTYLE_BEGIN
 90
        1
 91
        1
300
_TITLE
309
CELLSTYLE_END
300
CELLSTYLE
  1
TABLEFORMAT_BEGIN
 90
        5
170
     1
 91
        0
 92
        0
 62
   257
 93
        1
300
CONTENTFORMAT
  1
CONTENTFORMAT_BEGIN
 90
        0
 91
        0
 92
      512
 93
        0
300

 40
0.0
140
1.0
 94
        5
 62
     0
340
225
144
0.18
309
CONTENTFORMAT_END
171
     0
 94
        0
309
TABLEFORMAT_END
  1
CELLSTYLE_BEGIN
 90
        2
 91
        1
300
_HEADER
309
CELLSTYLE_END
300
CELLSTYLE
  1
TABLEFORMAT_BEGIN
 90
        5
170
     1
 91
        0
 92
        0
 62
   257
 93
        1
300
CONTENTFORMAT
  1
CONTENTFORMAT_BEGIN
 90
        0
 91
        0
 92
      512
 93
        0
300

 40
0.0
140
1.0
 94
        2
 62
     0
340
225
144
0.18
309
CONTENTFORMAT_END
171
     0
 94
        0
309
TABLEFORMAT_END
  1
CELLSTYLE_BEGIN
 90
        3
 91
        2
300
_DATA
309
CELLSTYLE_END
  0
XRECORD
  5
2FC
102
{ACAD_REACTORS
330
2C5
102
}
330
2C5
100
AcDbXrecord
280
     1
102
ACAD_ROUNDTRIP_PRE2007_TABLESTYLE
 90
      512
 91
        0
  1

 92
      512
 93
        0
  2

 94
      512
 95
        0
  3

  0
XRECORD
  5
2D7
102
{ACAD_REACTORS
330
2D6
102
}
330
2D6
100
AcDbXrecord
280
     1
102
RTVSPropertyOp0
 70
     1
102
RTVSPropertyOp1
 70
     1
102
RTVSPropertyOp2
 70
     1
102
RTVSPropertyOp3
 70
     1
102
RTVSPropertyOp4
 70
     1
102
RTVSPropertyOp5
 70
     1
102
RTVSPropertyOp6
 70
     1
102
RTVSPropertyOp7
 70
     1
102
RTVSPropertyOp8
 70
     1
102
RTVSPropertyOp9
 70
     1
102
RTVSPropertyOp10
 70
     1
102
RTVSPropertyOp11
 70
     1
102
RTVSPropertyOp12
 70
     1
102
RTVSPropertyOp13
 70
     1
102
RTVSPropertyOp14
 70
     1
102
RTVSPropertyOp15
 70
     1
102
RTVSPropertyOp16
 70
     1
102
RTVSPropertyOp17
 70
     1
102
RTVSPropertyOp18
 70
     1
102
RTVSPropertyOp19
 70
     1
102
RTVSPropertyOp20
 70
     1
102
RTVSPropertyOp21
 70
     1
102
RTVSPropertyOp22
 70
     1
102
RTVSPropertyOp23
 70
     1
102
RTVSPropertyOp24
 70
     1
102
RTVSPropertyOp25
 70
     1
102
RTVSPropertyOp26
 70
     1
102
RTVSPropertyOp27
 70
     1
102
RTVSPropertyOp28
 70
     1
102
RTVSPropertyOp29
 70
     1
102
RTVSPropertyOp30
 70
     1
102
RTVSPropertyOp31
 70
     1
102
RTVSPropertyOp32
 70
     1
  0
XRECORD
  5
2D5
102
{ACAD_REACTORS
330
2D4
102
}
330
2D4
100
AcDbXrecord
280
     1
102
RTVSPropertyOp0
 70
     1
102
RTVSPropertyOp1
 70
     1
102
RTVSPropertyOp2
 70
     1
102
RTVSPropertyOp3
 70
     1
102
RTVSPropertyOp4
 70
     1
102
RTVSPropertyOp5
 70
     1
102
RTVSPropertyOp6
 70
     1
102
RTVSPropertyOp7
 70
     1
102
RTVSPropertyOp8
 70
     1
102
RTVSPropertyOp9
 70
     1
102
RTVSPropertyOp10
 70
     1
102
RTVSPropertyOp11
 70
     1
102
RTVSPropertyOp12
 70
     1
102
RTVSPropertyOp13
 70
     1
102
RTVSPropertyOp14
 70
     1
102
RTVSPropertyOp15
 70
     1
102
RTVSPropertyOp16
 70
     1
102
RTVSPropertyOp17
 70
     1
102
RTVSPropertyOp18
 70
     1
102
RTVSPropertyOp19
 70
     1
102
RTVSPropertyOp20
 70
     1
102
RTVSPropertyOp21
 70
     1
102
RTVSPropertyOp22
 70
     1
102
RTVSPropertyOp23
 70
     1
102
RTVSPropertyOp24
 70
     1
102
RTVSPropertyOp25
 70
     1
102
RTVSPropertyOp26
 70
     1
102
RTVSPropertyOp27
 70
     1
102
RTVSPropertyOp28
 70
     1
102
RTVSPropertyOp29
 70
     1
102
RTVSPropertyOp30
 70
     1
102
RTVSPropertyOp31
 70
     1
102
RTVSPropertyOp32
 70
     1
  0
XRECORD
  5
2E3
102
{ACAD_REACTORS
330
2E2
102
}
330
2E2
100
AcDbXrecord
280
     1
102
RTVSPropertyOp0
 70
     1
102
RTVSPropertyOp1
 70
     1
102
RTVSPropertyOp2
 70
     1
102
RTVSPropertyOp3
 70
     1
102
RTVSPropertyOp4
 70
     1
102
RTVSPropertyOp5
 70
     1
102
RTVSPropertyOp6
 70
     1
102
RTVSPropertyOp7
 70
     1
102
RTVSPropertyOp8
 70
     1
102
RTVSPropertyOp9
 70
     1
102
RTVSPropertyOp10
 70
     1
102
RTVSPropertyOp11
 70
     1
102
RTVSPropertyOp12
 70
     1
102
RTVSPropertyOp13
 70
     1
102
RTVSPropertyOp14
 70
     1
102
RTVSPropertyOp15
 70
     1
102
RTVSPropertyOp16
 70
     1
102
RTVSPropertyOp17
 70
     1
102
RTVSPropertyOp18
 70
     1
102
RTVSPropertyOp19
 70
     1
102
RTVSPropertyOp20
 70
     1
102
RTVSPropertyOp21
 70
     1
102
RTVSPropertyOp22
 70
     1
102
RTVSPropertyOp23
 70
     1
102
RTVSPropertyOp24
 70
     1
102
RTVSPropertyOp25
 70
     1
102
RTVSPropertyOp26
 70
     1
102
RTVSPropertyOp27
 70
     1
102
RTVSPropertyOp28
 70
     1
102
RTVSPropertyOp29
 70
     1
102
RTVSPropertyOp30
 70
     1
102
RTVSPropertyOp31
 70
     1
102
RTVSPropertyOp32
 70
     1
  0
XRECORD
  5
2EB
102
{ACAD_REACTORS
330
2EA
102
}
330
2EA
100
AcDbXrecord
280
     1
102
RTVSPropertyOp0
 70
     1
102
RTVSPropertyOp1
 70
     1
102
RTVSPropertyOp2
 70
     1
102
RTVSPropertyOp3
 70
     1
102
RTVSPropertyOp4
 70
     1
102
RTVSPropertyOp5
 70
     1
102
RTVSPropertyOp6
 70
     1
102
RTVSPropertyOp7
 70
     1
102
RTVSPropertyOp8
 70
     1
102
RTVSPropertyOp9
 70
     1
102
RTVSPropertyOp10
 70
     1
102
RTVSPropertyOp11
 70
     1
102
RTVSPropertyOp12
 70
     1
102
RTVSPropertyOp13
 70
     1
102
RTVSPropertyOp14
 70
     1
102
RTVSPropertyOp15
 70
     1
102
RTVSPropertyOp16
 70
     1
102
RTVSPropertyOp17
 70
     1
102
RTVSPropertyOp18
 70
     1
102
RTVSPropertyOp19
 70
     1
102
RTVSPropertyOp20
 70
     1
102
RTVSPropertyOp21
 70
     1
102
RTVSPropertyOp22
 70
     1
102
RTVSPropertyOp23
 70
     1
102
RTVSPropertyOp24
 70
     1
102
RTVSPropertyOp25
 70
     1
102
RTVSPropertyOp26
 70
     1
102
RTVSPropertyOp27
 70
     1
102
RTVSPropertyOp28
 70
     1
102
RTVSPropertyOp29
 70
     1
102
RTVSPropertyOp30
 70
     1
102
RTVSPropertyOp31
 70
     1
102
RTVSPropertyOp32
 70
     1
  0
XRECORD
  5
2DD
102
{ACAD_REACTORS
330
2DC
102
}
330
2DC
100
AcDbXrecord
280
     1
102
RTVSPropertyOp0
 70
     1
102
RTVSPropertyOp1
 70
     1
102
RTVSPropertyOp2
 70
     1
102
RTVSPropertyOp3
 70
     1
102
RTVSPropertyOp4
 70
     1
102
RTVSPropertyOp5
 70
     1
102
RTVSPropertyOp6
 70
     1
102
RTVSPropertyOp7
 70
     1
102
RTVSPropertyOp8
 70
     1
102
RTVSPropertyOp9
 70
     1
102
RTVSPropertyOp10
 70
     1
102
RTVSPropertyOp11
 70
     1
102
RTVSPropertyOp12
 70
     1
102
RTVSPropertyOp13
 70
     1
102
RTVSPropertyOp14
 70
     1
102
RTVSPropertyOp15
 70
     1
102
RTVSPropertyOp16
 70
     1
102
RTVSPropertyOp17
 70
     1
102
RTVSPropertyOp18
 70
     1
102
RTVSPropertyOp19
 70
     1
102
RTVSPropertyOp20
 70
     1
102
RTVSPropertyOp21
 70
     1
102
RTVSPropertyOp22
 70
     1
102
RTVSPropertyOp23
 70
     1
102
RTVSPropertyOp24
 70
     1
102
RTVSPropertyOp25
 70
     1
102
RTVSPropertyOp26
 70
     1
102
RTVSPropertyOp27
 70
     1
102
RTVSPropertyOp28
 70
     1
102
RTVSPropertyOp29
 70
     1
102
RTVSPropertyOp30
 70
     1
102
RTVSPropertyOp31
 70
     1
102
RTVSPropertyOp32
 70
     1
  0
XRECORD
  5
2E1
102
{ACAD_REACTORS
330
2E0
102
}
330
2E0
100
AcDbXrecord
280
     1
102
RTVSPropertyOp0
 70
     1
102
RTVSPropertyOp1
 70
     1
102
RTVSPropertyOp2
 70
     1
102
RTVSPropertyOp3
 70
     1
102
RTVSPropertyOp4
 70
     1
102
RTVSPropertyOp5
 70
     1
102
RTVSPropertyOp6
 70
     1
102
RTVSPropertyOp7
 70
     1
102
RTVSPropertyOp8
 70
     1
102
RTVSPropertyOp9
 70
     1
102
RTVSPropertyOp10
 70
     1
102
RTVSPropertyOp11
 70
     1
102
RTVSPropertyOp12
 70
     1
102
RTVSPropertyOp13
 70
     1
102
RTVSPropertyOp14
 70
     1
102
RTVSPropertyOp15
 70
     1
102
RTVSPropertyOp16
 70
     1
102
RTVSPropertyOp17
 70
     1
102
RTVSPropertyOp18
 70
     1
102
RTVSPropertyOp19
 70
     1
102
RTVSPropertyOp20
 70
     1
102
RTVSPropertyOp21
 70
     1
102
RTVSPropertyOp22
 70
     1
102
RTVSPropertyOp23
 70
     1
102
RTVSPropertyOp24
 70
     1
102
RTVSPropertyOp25
 70
     1
102
RTVSPropertyOp26
 70
     1
102
RTVSPropertyOp27
 70
     1
102
RTVSPropertyOp28
 70
     1
102
RTVSPropertyOp29
 70
     1
102
RTVSPropertyOp30
 70
     1
102
RTVSPropertyOp31
 70
     1
102
RTVSPropertyOp32
 70
     1
  0
XRECORD
  5
2FB
102
{ACAD_REACTORS
330
2FA
102
}
330
2FA
100
AcDbXrecord
280
     1
102
RTVSPropertyOp0
 70
     0
102
RTVSPropertyOp1
 70
     0
102
RTVSPropertyOp2
 70
     0
102
RTVSPropertyOp3
 70
     0
102
RTVSPropertyOp4
 70
     0
102
RTVSPropertyOp5
 70
     0
102
RTVSPropertyOp6
 70
     0
102
RTVSPropertyOp7
 70
     0
102
RTVSPropertyOp8
 70
     0
102
RTVSPropertyOp9
 70
     0
102
RTVSPropertyOp10
 70
     0
102
RTVSPropertyOp11
 70
     0
102
RTVSPropertyOp12
 70
     0
102
RTVSPropertyOp13
 70
     0
102
RTVSPropertyOp14
 70
     2
102
RTVSPropertyOp15
 70
     0
102
RTVSPropertyOp16
 70
     0
102
RTVSPropertyOp17
 70
     0
102
RTVSPropertyOp18
 70
     0
102
RTVSPropertyOp19
 70
     0
102
RTVSPropertyOp20
 70
     0
102
RTVSPropertyOp21
 70
     0
102
RTVSPropertyOp22
 70
     0
102
RTVSPropertyOp23
 70
     0
102
RTVSPropertyOp24
 70
     0
102
RTVSPropertyOp25
 70
     0
102
RTVSPropertyOp26
 70
     0
102
RTVSPropertyOp27
 70
     0
102
RTVSPropertyOp28
 70
     0
102
RTVSPropertyOp29
 70
     0
102
RTVSPropertyOp30
 70
     0
102
RTVSPropertyOp31
 70
     0
102
RTVSPropertyOp32
 70
     0
  0
XRECORD
  5
2E9
102
{ACAD_REACTORS
330
2E8
102
}
330
2E8
100
AcDbXrecord
280
     1
102
RTVSPropertyOp0
 70
     1
102
RTVSPropertyOp1
 70
     1
102
RTVSPropertyOp2
 70
     1
102
RTVSPropertyOp3
 70
     1
102
RTVSPropertyOp4
 70
     1
102
RTVSPropertyOp5
 70
     1
102
RTVSPropertyOp6
 70
     1
102
RTVSPropertyOp7
 70
     1
102
RTVSPropertyOp8
 70
     1
102
RTVSPropertyOp9
 70
     1
102
RTVSPropertyOp10
 70
     1
102
RTVSPropertyOp11
 70
     1
102
RTVSPropertyOp12
 70
     1
102
RTVSPropertyOp13
 70
     1
102
RTVSPropertyOp14
 70
     1
102
RTVSPropertyOp15
 70
     1
102
RTVSPropertyOp16
 70
     1
102
RTVSPropertyOp17
 70
     1
102
RTVSPropertyOp18
 70
     1
102
RTVSPropertyOp19
 70
     1
102
RTVSPropertyOp20
 70
     1
102
RTVSPropertyOp21
 70
     1
102
RTVSPropertyOp22
 70
     1
102
RTVSPropertyOp23
 70
     1
102
RTVSPropertyOp24
 70
     1
102
RTVSPropertyOp25
 70
     1
102
RTVSPropertyOp26
 70
     1
102
RTVSPropertyOp27
 70
     1
102
RTVSPropertyOp28
 70
     1
102
RTVSPropertyOp29
 70
     1
102
RTVSPropertyOp30
 70
     1
102
RTVSPropertyOp31
 70
     1
102
RTVSPropertyOp32
 70
     1
  0
XRECORD
  5
2CD
102
{ACAD_REACTORS
330
2CC
102
}
330
2CC
100
AcDbXrecord
280
     1
102
RTVSPropertyOp0
 70
     1
102
RTVSPropertyOp1
 70
     1
102
RTVSPropertyOp2
 70
     1
102
RTVSPropertyOp3
 70
     1
102
RTVSPropertyOp4
 70
     1
102
RTVSPropertyOp5
 70
     1
102
RTVSPropertyOp6
 70
     1
102
RTVSPropertyOp7
 70
     1
102
RTVSPropertyOp8
 70
     1
102
RTVSPropertyOp9
 70
     1
102
RTVSPropertyOp10
 70
     1
102
RTVSPropertyOp11
 70
     1
102
RTVSPropertyOp12
 70
     1
102
RTVSPropertyOp13
 70
     1
102
RTVSPropertyOp14
 70
     1
102
RTVSPropertyOp15
 70
     1
102
RTVSPropertyOp16
 70
     1
102
RTVSPropertyOp17
 70
     1
102
RTVSPropertyOp18
 70
     1
102
RTVSPropertyOp19
 70
     1
102
RTVSPropertyOp20
 70
     1
102
RTVSPropertyOp21
 70
     1
102
RTVSPropertyOp22
 70
     1
102
RTVSPropertyOp23
 70
     1
102
RTVSPropertyOp24
 70
     1
102
RTVSPropertyOp25
 70
     1
102
RTVSPropertyOp26
 70
     1
102
RTVSPropertyOp27
 70
     1
102
RTVSPropertyOp28
 70
     1
102
RTVSPropertyOp29
 70
     1
102
RTVSPropertyOp30
 70
     1
102
RTVSPropertyOp31
 70
     1
102
RTVSPropertyOp32
 70
     1
  0
XRECORD
  5
2CF
102
{ACAD_REACTORS
330
2CE
102
}
330
2CE
100
AcDbXrecord
280
     1
102
RTVSPropertyOp0
 70
     1
102
RTVSPropertyOp1
 70
     1
102
RTVSPropertyOp2
 70
     1
102
RTVSPropertyOp3
 70
     1
102
RTVSPropertyOp4
 70
     1
102
RTVSPropertyOp5
 70
     1
102
RTVSPropertyOp6
 70
     1
102
RTVSPropertyOp7
 70
     1
102
RTVSPropertyOp8
 70
     1
102
RTVSPropertyOp9
 70
     1
102
RTVSPropertyOp10
 70
     1
102
RTVSPropertyOp11
 70
     1
102
RTVSPropertyOp12
 70
     1
102
RTVSPropertyOp13
 70
     1
102
RTVSPropertyOp14
 70
     1
102
RTVSPropertyOp15
 70
     1
102
RTVSPropertyOp16
 70
     1
102
RTVSPropertyOp17
 70
     1
102
RTVSPropertyOp18
 70
     1
102
RTVSPropertyOp19
 70
     1
102
RTVSPropertyOp20
 70
     1
102
RTVSPropertyOp21
 70
     1
102
RTVSPropertyOp22
 70
     1
102
RTVSPropertyOp23
 70
     1
102
RTVSPropertyOp24
 70
     1
102
RTVSPropertyOp25
 70
     1
102
RTVSPropertyOp26
 70
     1
102
RTVSPropertyOp27
 70
     1
102
RTVSPropertyOp28
 70
     1
102
RTVSPropertyOp29
 70
     1
102
RTVSPropertyOp30
 70
     1
102
RTVSPropertyOp31
 70
     1
102
RTVSPropertyOp32
 70
     1
  0
XRECORD
  5
2D1
102
{ACAD_REACTORS
330
2D0
102
}
330
2D0
100
AcDbXrecord
280
     1
102
RTVSPropertyOp0
 70
     1
102
RTVSPropertyOp1
 70
     1
102
RTVSPropertyOp2
 70
     1
102
RTVSPropertyOp3
 70
     1
102
RTVSPropertyOp4
 70
     1
102
RTVSPropertyOp5
 70
     1
102
RTVSPropertyOp6
 70
     1
102
RTVSPropertyOp7
 70
     1
102
RTVSPropertyOp8
 70
     1
102
RTVSPropertyOp9
 70
     1
102
RTVSPropertyOp10
 70
     1
102
RTVSPropertyOp11
 70
     1
102
RTVSPropertyOp12
 70
     1
102
RTVSPropertyOp13
 70
     1
102
RTVSPropertyOp14
 70
     1
102
RTVSPropertyOp15
 70
     1
102
RTVSPropertyOp16
 70
     1
102
RTVSPropertyOp17
 70
     1
102
RTVSPropertyOp18
 70
     1
102
RTVSPropertyOp19
 70
     1
102
RTVSPropertyOp20
 70
     1
102
RTVSPropertyOp21
 70
     1
102
RTVSPropertyOp22
 70
     1
102
RTVSPropertyOp23
 70
     1
102
RTVSPropertyOp24
 70
     1
102
RTVSPropertyOp25
 70
     1
102
RTVSPropertyOp26
 70
     1
102
RTVSPropertyOp27
 70
     1
102
RTVSPropertyOp28
 70
     1
102
RTVSPropertyOp29
 70
     1
102
RTVSPropertyOp30
 70
     1
102
RTVSPropertyOp31
 70
     1
102
RTVSPropertyOp32
 70
     1
  0
XRECORD
  5
2D3
102
{ACAD_REACTORS
330
2D2
102
}
330
2D2
100
AcDbXrecord
280
     1
102
RTVSPropertyOp0
 70
     1
102
RTVSPropertyOp1
 70
     1
102
RTVSPropertyOp2
 70
     1
102
RTVSPropertyOp3
 70
     1
102
RTVSPropertyOp4
 70
     1
102
RTVSPropertyOp5
 70
     1
102
RTVSPropertyOp6
 70
     1
102
RTVSPropertyOp7
 70
     1
102
RTVSPropertyOp8
 70
     1
102
RTVSPropertyOp9
 70
     1
102
RTVSPropertyOp10
 70
     1
102
RTVSPropertyOp11
 70
     1
102
RTVSPropertyOp12
 70
     1
102
RTVSPropertyOp13
 70
     1
102
RTVSPropertyOp14
 70
     1
102
RTVSPropertyOp15
 70
     1
102
RTVSPropertyOp16
 70
     1
102
RTVSPropertyOp17
 70
     1
102
RTVSPropertyOp18
 70
     1
102
RTVSPropertyOp19
 70
     1
102
RTVSPropertyOp20
 70
     1
102
RTVSPropertyOp21
 70
     1
102
RTVSPropertyOp22
 70
     1
102
RTVSPropertyOp23
 70
     1
102
RTVSPropertyOp24
 70
     1
102
RTVSPropertyOp25
 70
     1
102
RTVSPropertyOp26
 70
     1
102
RTVSPropertyOp27
 70
     1
102
RTVSPropertyOp28
 70
     1
102
RTVSPropertyOp29
 70
     1
102
RTVSPropertyOp30
 70
     1
102
RTVSPropertyOp31
 70
     1
102
RTVSPropertyOp32
 70
     1
  0
XRECORD
  5
2DB
102
{ACAD_REACTORS
330
2DA
102
}
330
2DA
100
AcDbXrecord
280
     1
102
RTVSPropertyOp0
 70
     1
102
RTVSPropertyOp1
 70
     1
102
RTVSPropertyOp2
 70
     1
102
RTVSPropertyOp3
 70
     1
102
RTVSPropertyOp4
 70
     1
102
RTVSPropertyOp5
 70
     1
102
RTVSPropertyOp6
 70
     1
102
RTVSPropertyOp7
 70
     1
102
RTVSPropertyOp8
 70
     1
102
RTVSPropertyOp9
 70
     1
102
RTVSPropertyOp10
 70
     1
102
RTVSPropertyOp11
 70
     1
102
RTVSPropertyOp12
 70
     1
102
RTVSPropertyOp13
 70
     1
102
RTVSPropertyOp14
 70
     1
102
RTVSPropertyOp15
 70
     1
102
RTVSPropertyOp16
 70
     1
102
RTVSPropertyOp17
 70
     1
102
RTVSPropertyOp18
 70
     1
102
RTVSPropertyOp19
 70
     1
102
RTVSPropertyOp20
 70
     1
102
RTVSPropertyOp21
 70
     1
102
RTVSPropertyOp22
 70
     1
102
RTVSPropertyOp23
 70
     1
102
RTVSPropertyOp24
 70
     1
102
RTVSPropertyOp25
 70
     1
102
RTVSPropertyOp26
 70
     1
102
RTVSPropertyOp27
 70
     1
102
RTVSPropertyOp28
 70
     1
102
RTVSPropertyOp29
 70
     1
102
RTVSPropertyOp30
 70
     1
102
RTVSPropertyOp31
 70
     1
102
RTVSPropertyOp32
 70
     1
  0
XRECORD
  5
2F7
102
{ACAD_REACTORS
330
2F6
102
}
330
2F6
100
AcDbXrecord
280
     1
102
RTVSPropertyOp0
 70
     0
102
RTVSPropertyOp1
 70
     0
102
RTVSPropertyOp2
 70
     0
102
RTVSPropertyOp3
 70
     0
102
RTVSPropertyOp4
 70
     0
102
RTVSPropertyOp5
 70
     0
102
RTVSPropertyOp6
 70
     0
102
RTVSPropertyOp7
 70
     0
102
RTVSPropertyOp8
 70
     0
102
RTVSPropertyOp9
 70
     0
102
RTVSPropertyOp10
 70
     0
102
RTVSPropertyOp11
 70
     0
102
RTVSPropertyOp12
 70
     0
102
RTVSPropertyOp13
 70
     0
102
RTVSPropertyOp14
 70
     2
102
RTVSPropertyOp15
 70
     0
102
RTVSPropertyOp16
 70
     0
102
RTVSPropertyOp17
 70
     0
102
RTVSPropertyOp18
 70
     0
102
RTVSPropertyOp19
 70
     0
102
RTVSPropertyOp20
 70
     0
102
RTVSPropertyOp21
 70
     0
102
RTVSPropertyOp22
 70
     0
102
RTVSPropertyOp23
 70
     0
102
RTVSPropertyOp24
 70
     0
102
RTVSPropertyOp25
 70
     0
102
RTVSPropertyOp26
 70
     0
102
RTVSPropertyOp27
 70
     0
102
RTVSPropertyOp28
 70
     0
102
RTVSPropertyOp29
 70
     0
102
RTVSPropertyOp30
 70
     0
102
RTVSPropertyOp31
 70
     0
102
RTVSPropertyOp32
 70
     0
  0
XRECORD
  5
2E7
102
{ACAD_REACTORS
330
2E6
102
}
330
2E6
100
AcDbXrecord
280
     1
102
RTVSPropertyOp0
 70
     1
102
RTVSPropertyOp1
 70
     1
102
RTVSPropertyOp2
 70
     1
102
RTVSPropertyOp3
 70
     1
102
RTVSPropertyOp4
 70
     1
102
RTVSPropertyOp5
 70
     1
102
RTVSPropertyOp6
 70
     1
102
RTVSPropertyOp7
 70
     1
102
RTVSPropertyOp8
 70
     1
102
RTVSPropertyOp9
 70
     1
102
RTVSPropertyOp10
 70
     1
102
RTVSPropertyOp11
 70
     1
102
RTVSPropertyOp12
 70
     1
102
RTVSPropertyOp13
 70
     1
102
RTVSPropertyOp14
 70
     1
102
RTVSPropertyOp15
 70
     1
102
RTVSPropertyOp16
 70
     1
102
RTVSPropertyOp17
 70
     1
102
RTVSPropertyOp18
 70
     1
102
RTVSPropertyOp19
 70
     1
102
RTVSPropertyOp20
 70
     1
102
RTVSPropertyOp21
 70
     1
102
RTVSPropertyOp22
 70
     1
102
RTVSPropertyOp23
 70
     1
102
RTVSPropertyOp24
 70
     1
102
RTVSPropertyOp25
 70
     1
102
RTVSPropertyOp26
 70
     1
102
RTVSPropertyOp27
 70
     1
102
RTVSPropertyOp28
 70
     1
102
RTVSPropertyOp29
 70
     1
102
RTVSPropertyOp30
 70
     1
102
RTVSPropertyOp31
 70
     1
102
RTVSPropertyOp32
 70
     1
  0
XRECORD
  5
2F9
102
{ACAD_REACTORS
330
2F8
102
}
330
2F8
100
AcDbXrecord
280
     1
102
RTVSPropertyOp0
 70
     0
102
RTVSPropertyOp1
 70
     0
102
RTVSPropertyOp2
 70
     0
102
RTVSPropertyOp3
 70
     0
102
RTVSPropertyOp4
 70
     0
102
RTVSPropertyOp5
 70
     0
102
RTVSPropertyOp6
 70
     0
102
RTVSPropertyOp7
 70
     0
102
RTVSPropertyOp8
 70
     0
102
RTVSPropertyOp9
 70
     0
102
RTVSPropertyOp10
 70
     0
102
RTVSPropertyOp11
 70
     0
102
RTVSPropertyOp12
 70
     0
102
RTVSPropertyOp13
 70
     0
102
RTVSPropertyOp14
 70
     2
102
RTVSPropertyOp15
 70
     0
102
RTVSPropertyOp16
 70
     0
102
RTVSPropertyOp17
 70
     0
102
RTVSPropertyOp18
 70
     0
102
RTVSPropertyOp19
 70
     0
102
RTVSPropertyOp20
 70
     0
102
RTVSPropertyOp21
 70
     0
102
RTVSPropertyOp22
 70
     0
102
RTVSPropertyOp23
 70
     0
102
RTVSPropertyOp24
 70
     0
102
RTVSPropertyOp25
 70
     0
102
RTVSPropertyOp26
 70
     0
102
RTVSPropertyOp27
 70
     0
102
RTVSPropertyOp28
 70
     0
102
RTVSPropertyOp29
 70
     0
102
RTVSPropertyOp30
 70
     0
102
RTVSPropertyOp31
 70
     0
102
RTVSPropertyOp32
 70
     0
  0
XRECORD
  5
2DF
102
{ACAD_REACTORS
330
2DE
102
}
330
2DE
100
AcDbXrecord
280
     1
102
RTVSPropertyOp0
 70
     1
102
RTVSPropertyOp1
 70
     1
102
RTVSPropertyOp2
 70
     1
102
RTVSPropertyOp3
 70
     1
102
RTVSPropertyOp4
 70
     1
102
RTVSPropertyOp5
 70
     1
102
RTVSPropertyOp6
 70
     1
102
RTVSPropertyOp7
 70
     1
102
RTVSPropertyOp8
 70
     1
102
RTVSPropertyOp9
 70
     1
102
RTVSPropertyOp10
 70
     1
102
RTVSPropertyOp11
 70
     1
102
RTVSPropertyOp12
 70
     1
102
RTVSPropertyOp13
 70
     1
102
RTVSPropertyOp14
 70
     1
102
RTVSPropertyOp15
 70
     1
102
RTVSPropertyOp16
 70
     1
102
RTVSPropertyOp17
 70
     1
102
RTVSPropertyOp18
 70
     1
102
RTVSPropertyOp19
 70
     1
102
RTVSPropertyOp20
 70
     1
102
RTVSPropertyOp21
 70
     1
102
RTVSPropertyOp22
 70
     1
102
RTVSPropertyOp23
 70
     1
102
RTVSPropertyOp24
 70
     1
102
RTVSPropertyOp25
 70
     1
102
RTVSPropertyOp26
 70
     1
102
RTVSPropertyOp27
 70
     1
102
RTVSPropertyOp28
 70
     1
102
RTVSPropertyOp29
 70
     1
102
RTVSPropertyOp30
 70
     1
102
RTVSPropertyOp31
 70
     1
102
RTVSPropertyOp32
 70
     1
  0
XRECORD
  5
2F5
102
{ACAD_REACTORS
330
2F4
102
}
330
2F4
100
AcDbXrecord
280
     1
102
RTVSPropertyOp0
 70
     1
102
RTVSPropertyOp1
 70
     1
102
RTVSPropertyOp2
 70
     1
102
RTVSPropertyOp3
 70
     1
102
RTVSPropertyOp4
 70
     1
102
RTVSPropertyOp5
 70
     1
102
RTVSPropertyOp6
 70
     1
102
RTVSPropertyOp7
 70
     1
102
RTVSPropertyOp8
 70
     1
102
RTVSPropertyOp9
 70
     1
102
RTVSPropertyOp10
 70
     1
102
RTVSPropertyOp11
 70
     1
102
RTVSPropertyOp12
 70
     1
102
RTVSPropertyOp13
 70
     1
102
RTVSPropertyOp14
 70
     1
102
RTVSPropertyOp15
 70
     1
102
RTVSPropertyOp16
 70
     1
102
RTVSPropertyOp17
 70
     1
102
RTVSPropertyOp18
 70
     1
102
RTVSPropertyOp19
 70
     1
102
RTVSPropertyOp20
 70
     1
102
RTVSPropertyOp21
 70
     1
102
RTVSPropertyOp22
 70
     1
102
RTVSPropertyOp23
 70
     1
102
RTVSPropertyOp24
 70
     1
102
RTVSPropertyOp25
 70
     1
102
RTVSPropertyOp26
 70
     1
102
RTVSPropertyOp27
 70
     1
102
RTVSPropertyOp28
 70
     1
102
RTVSPropertyOp29
 70
     1
102
RTVSPropertyOp30
 70
     1
102
RTVSPropertyOp31
 70
     1
102
RTVSPropertyOp32
 70
     1
  0
XRECORD
  5
2F3
102
{ACAD_REACTORS
330
2F2
102
}
330
2F2
100
AcDbXrecord
280
     1
102
RTVSPropertyOp0
 70
     1
102
RTVSPropertyOp1
 70
     1
102
RTVSPropertyOp2
 70
     1
102
RTVSPropertyOp3
 70
     1
102
RTVSPropertyOp4
 70
     1
102
RTVSPropertyOp5
 70
     1
102
RTVSPropertyOp6
 70
     1
102
RTVSPropertyOp7
 70
     1
102
RTVSPropertyOp8
 70
     1
102
RTVSPropertyOp9
 70
     1
102
RTVSPropertyOp10
 70
     1
102
RTVSPropertyOp11
 70
     1
102
RTVSPropertyOp12
 70
     1
102
RTVSPropertyOp13
 70
     1
102
RTVSPropertyOp14
 70
     1
102
RTVSPropertyOp15
 70
     1
102
RTVSPropertyOp16
 70
     1
102
RTVSPropertyOp17
 70
     1
102
RTVSPropertyOp18
 70
     1
102
RTVSPropertyOp19
 70
     1
102
RTVSPropertyOp20
 70
     1
102
RTVSPropertyOp21
 70
     1
102
RTVSPropertyOp22
 70
     1
102
RTVSPropertyOp23
 70
     1
102
RTVSPropertyOp24
 70
     1
102
RTVSPropertyOp25
 70
     1
102
RTVSPropertyOp26
 70
     1
102
RTVSPropertyOp27
 70
     1
102
RTVSPropertyOp28
 70
     1
102
RTVSPropertyOp29
 70
     1
102
RTVSPropertyOp30
 70
     1
102
RTVSPropertyOp31
 70
     1
102
RTVSPropertyOp32
 70
     1
  0
XRECORD
  5
2ED
102
{ACAD_REACTORS
330
2EC
102
}
330
2EC
100
AcDbXrecord
280
     1
102
RTVSPropertyOp0
 70
     1
102
RTVSPropertyOp1
 70
     1
102
RTVSPropertyOp2
 70
     1
102
RTVSPropertyOp3
 70
     1
102
RTVSPropertyOp4
 70
     1
102
RTVSPropertyOp5
 70
     1
102
RTVSPropertyOp6
 70
     1
102
RTVSPropertyOp7
 70
     1
102
RTVSPropertyOp8
 70
     1
102
RTVSPropertyOp9
 70
     1
102
RTVSPropertyOp10
 70
     1
102
RTVSPropertyOp11
 70
     1
102
RTVSPropertyOp12
 70
     1
102
RTVSPropertyOp13
 70
     1
102
RTVSPropertyOp14
 70
     1
102
RTVSPropertyOp15
 70
     1
102
RTVSPropertyOp16
 70
     1
102
RTVSPropertyOp17
 70
     1
102
RTVSPropertyOp18
 70
     1
102
RTVSPropertyOp19
 70
     1
102
RTVSPropertyOp20
 70
     1
102
RTVSPropertyOp21
 70
     1
102
RTVSPropertyOp22
 70
     1
102
RTVSPropertyOp23
 70
     1
102
RTVSPropertyOp24
 70
     1
102
RTVSPropertyOp25
 70
     1
102
RTVSPropertyOp26
 70
     1
102
RTVSPropertyOp27
 70
     1
102
RTVSPropertyOp28
 70
     1
102
RTVSPropertyOp29
 70
     1
102
RTVSPropertyOp30
 70
     1
102
RTVSPropertyOp31
 70
     1
102
RTVSPropertyOp32
 70
     1
  0
XRECORD
  5
2EF
102
{ACAD_REACTORS
330
2EE
102
}
330
2EE
100
AcDbXrecord
280
     1
102
RTVSPropertyOp0
 70
     1
102
RTVSPropertyOp1
 70
     1
102
RTVSPropertyOp2
 70
     1
102
RTVSPropertyOp3
 70
     1
102
RTVSPropertyOp4
 70
     1
102
RTVSPropertyOp5
 70
     1
102
RTVSPropertyOp6
 70
     1
102
RTVSPropertyOp7
 70
     1
102
RTVSPropertyOp8
 70
     1
102
RTVSPropertyOp9
 70
     1
102
RTVSPropertyOp10
 70
     1
102
RTVSPropertyOp11
 70
     1
102
RTVSPropertyOp12
 70
     1
102
RTVSPropertyOp13
 70
     1
102
RTVSPropertyOp14
 70
     1
102
RTVSPropertyOp15
 70
     1
102
RTVSPropertyOp16
 70
     1
102
RTVSPropertyOp17
 70
     1
102
RTVSPropertyOp18
 70
     1
102
RTVSPropertyOp19
 70
     1
102
RTVSPropertyOp20
 70
     1
102
RTVSPropertyOp21
 70
     1
102
RTVSPropertyOp22
 70
     1
102
RTVSPropertyOp23
 70
     1
102
RTVSPropertyOp24
 70
     1
102
RTVSPropertyOp25
 70
     1
102
RTVSPropertyOp26
 70
     1
102
RTVSPropertyOp27
 70
     1
102
RTVSPropertyOp28
 70
     1
102
RTVSPropertyOp29
 70
     1
102
RTVSPropertyOp30
 70
     1
102
RTVSPropertyOp31
 70
     1
102
RTVSPropertyOp32
 70
     1
  0
XRECORD
  5
2E5
102
{ACAD_REACTORS
330
2E4
102
}
330
2E4
100
AcDbXrecord
280
     1
102
RTVSPropertyOp0
 70
     1
102
RTVSPropertyOp1
 70
     1
102
RTVSPropertyOp2
 70
     1
102
RTVSPropertyOp3
 70
     1
102
RTVSPropertyOp4
 70
     1
102
RTVSPropertyOp5
 70
     1
102
RTVSPropertyOp6
 70
     1
102
RTVSPropertyOp7
 70
     1
102
RTVSPropertyOp8
 70
     1
102
RTVSPropertyOp9
 70
     1
102
RTVSPropertyOp10
 70
     1
102
RTVSPropertyOp11
 70
     1
102
RTVSPropertyOp12
 70
     1
102
RTVSPropertyOp13
 70
     1
102
RTVSPropertyOp14
 70
     1
102
RTVSPropertyOp15
 70
     1
102
RTVSPropertyOp16
 70
     1
102
RTVSPropertyOp17
 70
     1
102
RTVSPropertyOp18
 70
     1
102
RTVSPropertyOp19
 70
     1
102
RTVSPropertyOp20
 70
     1
102
RTVSPropertyOp21
 70
     1
102
RTVSPropertyOp22
 70
     1
102
RTVSPropertyOp23
 70
     1
102
RTVSPropertyOp24
 70
     1
102
RTVSPropertyOp25
 70
     1
102
RTVSPropertyOp26
 70
     1
102
RTVSPropertyOp27
 70
     1
102
RTVSPropertyOp28
 70
     1
102
RTVSPropertyOp29
 70
     1
102
RTVSPropertyOp30
 70
     1
102
RTVSPropertyOp31
 70
     1
102
RTVSPropertyOp32
 70
     1
  0
XRECORD
  5
2D9
102
{ACAD_REACTORS
330
2D8
102
}
330
2D8
100
AcDbXrecord
280
     1
102
RTVSPropertyOp0
 70
     1
102
RTVSPropertyOp1
 70
     1
102
RTVSPropertyOp2
 70
     1
102
RTVSPropertyOp3
 70
     1
102
RTVSPropertyOp4
 70
     1
102
RTVSPropertyOp5
 70
     1
102
RTVSPropertyOp6
 70
     1
102
RTVSPropertyOp7
 70
     1
102
RTVSPropertyOp8
 70
     1
102
RTVSPropertyOp9
 70
     1
102
RTVSPropertyOp10
 70
     1
102
RTVSPropertyOp11
 70
     1
102
RTVSPropertyOp12
 70
     1
102
RTVSPropertyOp13
 70
     1
102
RTVSPropertyOp14
 70
     1
102
RTVSPropertyOp15
 70
     1
102
RTVSPropertyOp16
 70
     1
102
RTVSPropertyOp17
 70
     1
102
RTVSPropertyOp18
 70
     1
102
RTVSPropertyOp19
 70
     1
102
RTVSPropertyOp20
 70
     1
102
RTVSPropertyOp21
 70
     1
102
RTVSPropertyOp22
 70
     1
102
RTVSPropertyOp23
 70
     1
102
RTVSPropertyOp24
 70
     1
102
RTVSPropertyOp25
 70
     1
102
RTVSPropertyOp26
 70
     1
102
RTVSPropertyOp27
 70
     1
102
RTVSPropertyOp28
 70
     1
102
RTVSPropertyOp29
 70
     1
102
RTVSPropertyOp30
 70
     1
102
RTVSPropertyOp31
 70
     1
102
RTVSPropertyOp32
 70
     1
  0
XRECORD
  5
2F1
102
{ACAD_REACTORS
330
2F0
102
}
330
2F0
100
AcDbXrecord
280
     1
102
RTVSPropertyOp0
 70
     1
102
RTVSPropertyOp1
 70
     1
102
RTVSPropertyOp2
 70
     1
102
RTVSPropertyOp3
 70
     1
102
RTVSPropertyOp4
 70
     1
102
RTVSPropertyOp5
 70
     1
102
RTVSPropertyOp6
 70
     1
102
RTVSPropertyOp7
 70
     1
102
RTVSPropertyOp8
 70
     1
102
RTVSPropertyOp9
 70
     1
102
RTVSPropertyOp10
 70
     1
102
RTVSPropertyOp11
 70
     1
102
RTVSPropertyOp12
 70
     1
102
RTVSPropertyOp13
 70
     1
102
RTVSPropertyOp14
 70
     1
102
RTVSPropertyOp15
 70
     1
102
RTVSPropertyOp16
 70
     1
102
RTVSPropertyOp17
 70
     1
102
RTVSPropertyOp18
 70
     1
102
RTVSPropertyOp19
 70
     1
102
RTVSPropertyOp20
 70
     1
102
RTVSPropertyOp21
 70
     1
102
RTVSPropertyOp22
 70
     1
102
RTVSPropertyOp23
 70
     1
102
RTVSPropertyOp24
 70
     1
102
RTVSPropertyOp25
 70
     1
102
RTVSPropertyOp26
 70
     1
102
RTVSPropertyOp27
 70
     1
102
RTVSPropertyOp28
 70
     1
102
RTVSPropertyOp29
 70
     1
102
RTVSPropertyOp30
 70
     1
102
RTVSPropertyOp31
 70
     1
102
RTVSPropertyOp32
 70
     1
  0
ENDSEC
  0
EOF
