ISO-10303-21;
HEADER;
/* Generated by software containing ST-Developer
 * from STEP Tools, Inc. (www.steptools.com) 
 */

FILE_DESCRIPTION(
/* description */ ('Translator using VaultInventorServer'),
/* implementation_level */ '2;1');

FILE_NAME(
/* name */ 
'C:\\DIERRE19\\Designs\\Storico\\FIORANO\\AUTOMAZIONE\\80\\RT_R\\80RT0
0012R-A_A.stp',
/* time_stamp */ '2025-03-13T14:53:19+01:00',
/* author */ (''),
/* organization */ (''),
/* preprocessor_version */ 'ST-DEVELOPER v18.1',
/* originating_system */ 'Autodesk Inventor 2022',
/* authorisation */ '');

FILE_SCHEMA (('AUTOMOTIVE_DESIGN { 1 0 10303 214 3 1 1 }'));
ENDSEC;

DATA;
#10=MECHANICAL_DESIGN_GEOMETRIC_PRESENTATION_REPRESENTATION('',(#13),#365);
#11=SHAPE_REPRESENTATION_RELATIONSHIP('SRR','None',#372,#12);
#12=ADVANCED_BREP_SHAPE_REPRESENTATION('',(#14),#364);
#13=STYLED_ITEM('',(#381),#14);
#14=MANIFOLD_SOLID_BREP('Solido1',#190);
#15=TOROIDAL_SURFACE('',#235,10.5,3.);
#16=CYLINDRICAL_SURFACE('',#219,8.5);
#17=CYLINDRICAL_SURFACE('',#226,8.5);
#18=CYLINDRICAL_SURFACE('',#234,4.25);
#19=CYLINDRICAL_SURFACE('',#237,4.25);
#20=CYLINDRICAL_SURFACE('',#241,2.5);
#21=FACE_BOUND('',#43,.T.);
#22=FACE_BOUND('',#48,.T.);
#23=FACE_BOUND('',#50,.T.);
#24=FACE_BOUND('',#55,.T.);
#25=PLANE('',#217);
#26=PLANE('',#229);
#27=PLANE('',#231);
#28=PLANE('',#239);
#29=FACE_OUTER_BOUND('',#41,.T.);
#30=FACE_OUTER_BOUND('',#42,.T.);
#31=FACE_OUTER_BOUND('',#44,.T.);
#32=FACE_OUTER_BOUND('',#45,.T.);
#33=FACE_OUTER_BOUND('',#46,.T.);
#34=FACE_OUTER_BOUND('',#47,.T.);
#35=FACE_OUTER_BOUND('',#49,.T.);
#36=FACE_OUTER_BOUND('',#51,.T.);
#37=FACE_OUTER_BOUND('',#52,.T.);
#38=FACE_OUTER_BOUND('',#53,.T.);
#39=FACE_OUTER_BOUND('',#54,.T.);
#40=FACE_OUTER_BOUND('',#56,.T.);
#41=EDGE_LOOP('',(#128,#129,#130,#131,#132));
#42=EDGE_LOOP('',(#133));
#43=EDGE_LOOP('',(#134));
#44=EDGE_LOOP('',(#135,#136,#137,#138,#139,#140));
#45=EDGE_LOOP('',(#141,#142,#143,#144,#145));
#46=EDGE_LOOP('',(#146,#147,#148,#149,#150,#151));
#47=EDGE_LOOP('',(#152));
#48=EDGE_LOOP('',(#153));
#49=EDGE_LOOP('',(#154));
#50=EDGE_LOOP('',(#155));
#51=EDGE_LOOP('',(#156,#157,#158,#159));
#52=EDGE_LOOP('',(#160,#161,#162,#163,#164,#165));
#53=EDGE_LOOP('',(#166,#167,#168,#169));
#54=EDGE_LOOP('',(#170));
#55=EDGE_LOOP('',(#171));
#56=EDGE_LOOP('',(#172,#173,#174,#175));
#57=LINE('',#316,#64);
#58=LINE('',#325,#65);
#59=LINE('',#331,#66);
#60=LINE('',#337,#67);
#61=LINE('',#350,#68);
#62=LINE('',#356,#69);
#63=LINE('',#361,#70);
#64=VECTOR('',#250,8.4);
#65=VECTOR('',#261,8.5);
#66=VECTOR('',#268,8.4);
#67=VECTOR('',#275,8.5);
#68=VECTOR('',#292,4.25);
#69=VECTOR('',#301,4.25);
#70=VECTOR('',#308,2.5);
#71=CIRCLE('',#214,8.5);
#72=CIRCLE('',#215,8.5);
#73=CIRCLE('',#216,8.3);
#74=CIRCLE('',#218,4.25);
#75=CIRCLE('',#220,8.5);
#76=CIRCLE('',#221,8.5);
#77=CIRCLE('',#223,8.3);
#78=CIRCLE('',#224,8.5);
#79=CIRCLE('',#225,8.5);
#80=CIRCLE('',#227,8.5);
#81=CIRCLE('',#228,8.5);
#82=CIRCLE('',#230,4.25);
#83=CIRCLE('',#232,4.25);
#84=CIRCLE('',#233,2.5);
#85=CIRCLE('',#236,3.);
#86=CIRCLE('',#238,4.25);
#87=CIRCLE('',#240,2.5);
#88=VERTEX_POINT('',#311);
#89=VERTEX_POINT('',#312);
#90=VERTEX_POINT('',#315);
#91=VERTEX_POINT('',#319);
#92=VERTEX_POINT('',#322);
#93=VERTEX_POINT('',#323);
#94=VERTEX_POINT('',#328);
#95=VERTEX_POINT('',#330);
#96=VERTEX_POINT('',#332);
#97=VERTEX_POINT('',#336);
#98=VERTEX_POINT('',#338);
#99=VERTEX_POINT('',#342);
#100=VERTEX_POINT('',#345);
#101=VERTEX_POINT('',#347);
#102=VERTEX_POINT('',#354);
#103=VERTEX_POINT('',#358);
#104=EDGE_CURVE('',#88,#89,#71,.T.);
#105=EDGE_CURVE('',#89,#88,#72,.T.);
#106=EDGE_CURVE('',#88,#90,#57,.T.);
#107=EDGE_CURVE('',#90,#90,#73,.T.);
#108=EDGE_CURVE('',#91,#91,#74,.T.);
#109=EDGE_CURVE('',#92,#93,#75,.T.);
#110=EDGE_CURVE('',#92,#89,#58,.T.);
#111=EDGE_CURVE('',#93,#92,#76,.T.);
#112=EDGE_CURVE('',#94,#94,#77,.T.);
#113=EDGE_CURVE('',#94,#95,#59,.T.);
#114=EDGE_CURVE('',#95,#96,#78,.T.);
#115=EDGE_CURVE('',#96,#95,#79,.T.);
#116=EDGE_CURVE('',#96,#97,#60,.T.);
#117=EDGE_CURVE('',#97,#98,#80,.T.);
#118=EDGE_CURVE('',#98,#97,#81,.T.);
#119=EDGE_CURVE('',#99,#99,#82,.T.);
#120=EDGE_CURVE('',#100,#100,#83,.T.);
#121=EDGE_CURVE('',#101,#101,#84,.T.);
#122=EDGE_CURVE('',#91,#100,#61,.T.);
#123=EDGE_CURVE('',#93,#98,#85,.T.);
#124=EDGE_CURVE('',#102,#102,#86,.T.);
#125=EDGE_CURVE('',#102,#99,#62,.T.);
#126=EDGE_CURVE('',#103,#103,#87,.T.);
#127=EDGE_CURVE('',#103,#101,#63,.T.);
#128=ORIENTED_EDGE('',*,*,#104,.T.);
#129=ORIENTED_EDGE('',*,*,#105,.T.);
#130=ORIENTED_EDGE('',*,*,#106,.T.);
#131=ORIENTED_EDGE('',*,*,#107,.T.);
#132=ORIENTED_EDGE('',*,*,#106,.F.);
#133=ORIENTED_EDGE('',*,*,#107,.F.);
#134=ORIENTED_EDGE('',*,*,#108,.T.);
#135=ORIENTED_EDGE('',*,*,#109,.F.);
#136=ORIENTED_EDGE('',*,*,#110,.T.);
#137=ORIENTED_EDGE('',*,*,#104,.F.);
#138=ORIENTED_EDGE('',*,*,#105,.F.);
#139=ORIENTED_EDGE('',*,*,#110,.F.);
#140=ORIENTED_EDGE('',*,*,#111,.F.);
#141=ORIENTED_EDGE('',*,*,#112,.T.);
#142=ORIENTED_EDGE('',*,*,#113,.T.);
#143=ORIENTED_EDGE('',*,*,#114,.T.);
#144=ORIENTED_EDGE('',*,*,#115,.T.);
#145=ORIENTED_EDGE('',*,*,#113,.F.);
#146=ORIENTED_EDGE('',*,*,#114,.F.);
#147=ORIENTED_EDGE('',*,*,#115,.F.);
#148=ORIENTED_EDGE('',*,*,#116,.T.);
#149=ORIENTED_EDGE('',*,*,#117,.T.);
#150=ORIENTED_EDGE('',*,*,#118,.T.);
#151=ORIENTED_EDGE('',*,*,#116,.F.);
#152=ORIENTED_EDGE('',*,*,#112,.F.);
#153=ORIENTED_EDGE('',*,*,#119,.F.);
#154=ORIENTED_EDGE('',*,*,#120,.F.);
#155=ORIENTED_EDGE('',*,*,#121,.T.);
#156=ORIENTED_EDGE('',*,*,#108,.F.);
#157=ORIENTED_EDGE('',*,*,#122,.T.);
#158=ORIENTED_EDGE('',*,*,#120,.T.);
#159=ORIENTED_EDGE('',*,*,#122,.F.);
#160=ORIENTED_EDGE('',*,*,#109,.T.);
#161=ORIENTED_EDGE('',*,*,#123,.T.);
#162=ORIENTED_EDGE('',*,*,#117,.F.);
#163=ORIENTED_EDGE('',*,*,#118,.F.);
#164=ORIENTED_EDGE('',*,*,#123,.F.);
#165=ORIENTED_EDGE('',*,*,#111,.T.);
#166=ORIENTED_EDGE('',*,*,#124,.F.);
#167=ORIENTED_EDGE('',*,*,#125,.T.);
#168=ORIENTED_EDGE('',*,*,#119,.T.);
#169=ORIENTED_EDGE('',*,*,#125,.F.);
#170=ORIENTED_EDGE('',*,*,#124,.T.);
#171=ORIENTED_EDGE('',*,*,#126,.F.);
#172=ORIENTED_EDGE('',*,*,#126,.T.);
#173=ORIENTED_EDGE('',*,*,#127,.T.);
#174=ORIENTED_EDGE('',*,*,#121,.F.);
#175=ORIENTED_EDGE('',*,*,#127,.F.);
#176=CONICAL_SURFACE('',#213,8.4,0.785398163397448);
#177=CONICAL_SURFACE('',#222,8.4,0.785398163397448);
#178=ADVANCED_FACE('',(#29),#176,.T.);
#179=ADVANCED_FACE('',(#30,#21),#25,.T.);
#180=ADVANCED_FACE('',(#31),#16,.T.);
#181=ADVANCED_FACE('',(#32),#177,.T.);
#182=ADVANCED_FACE('',(#33),#17,.T.);
#183=ADVANCED_FACE('',(#34,#22),#26,.T.);
#184=ADVANCED_FACE('',(#35,#23),#27,.T.);
#185=ADVANCED_FACE('',(#36),#18,.T.);
#186=ADVANCED_FACE('',(#37),#15,.F.);
#187=ADVANCED_FACE('',(#38),#19,.T.);
#188=ADVANCED_FACE('',(#39,#24),#28,.T.);
#189=ADVANCED_FACE('',(#40),#20,.F.);
#190=CLOSED_SHELL('',(#178,#179,#180,#181,#182,#183,#184,#185,#186,#187,
#188,#189));
#191=DERIVED_UNIT_ELEMENT(#194,1.);
#192=DERIVED_UNIT_ELEMENT(#367,-3.);
#193=DIMENSIONAL_EXPONENTS(1.,0.,0.,0.,0.,0.,0.);
#194=(
CONVERSION_BASED_UNIT('gram',#196)
MASS_UNIT()
NAMED_UNIT(#193)
);
#195=(
MASS_UNIT()
NAMED_UNIT(*)
SI_UNIT(.KILO.,.GRAM.)
);
#196=MASS_MEASURE_WITH_UNIT(MASS_MEASURE(0.001),#195);
#197=DERIVED_UNIT((#191,#192));
#198=MEASURE_REPRESENTATION_ITEM('density measure',
POSITIVE_RATIO_MEASURE(7.85),#197);
#199=PROPERTY_DEFINITION_REPRESENTATION(#204,#201);
#200=PROPERTY_DEFINITION_REPRESENTATION(#205,#202);
#201=REPRESENTATION('material name',(#203),#364);
#202=REPRESENTATION('density',(#198),#364);
#203=DESCRIPTIVE_REPRESENTATION_ITEM('Steel','Steel');
#204=PROPERTY_DEFINITION('material property','material name',#374);
#205=PROPERTY_DEFINITION('material property','density of part',#374);
#206=DATE_TIME_ROLE('creation_date');
#207=APPLIED_DATE_AND_TIME_ASSIGNMENT(#208,#206,(#374));
#208=DATE_AND_TIME(#209,#210);
#209=CALENDAR_DATE(2013,11,6);
#210=LOCAL_TIME(0,0,0.,#211);
#211=COORDINATED_UNIVERSAL_TIME_OFFSET(0,0,.BEHIND.);
#212=AXIS2_PLACEMENT_3D('placement',#309,#242,#243);
#213=AXIS2_PLACEMENT_3D('',#310,#244,#245);
#214=AXIS2_PLACEMENT_3D('',#313,#246,#247);
#215=AXIS2_PLACEMENT_3D('',#314,#248,#249);
#216=AXIS2_PLACEMENT_3D('',#317,#251,#252);
#217=AXIS2_PLACEMENT_3D('',#318,#253,#254);
#218=AXIS2_PLACEMENT_3D('',#320,#255,#256);
#219=AXIS2_PLACEMENT_3D('',#321,#257,#258);
#220=AXIS2_PLACEMENT_3D('',#324,#259,#260);
#221=AXIS2_PLACEMENT_3D('',#326,#262,#263);
#222=AXIS2_PLACEMENT_3D('',#327,#264,#265);
#223=AXIS2_PLACEMENT_3D('',#329,#266,#267);
#224=AXIS2_PLACEMENT_3D('',#333,#269,#270);
#225=AXIS2_PLACEMENT_3D('',#334,#271,#272);
#226=AXIS2_PLACEMENT_3D('',#335,#273,#274);
#227=AXIS2_PLACEMENT_3D('',#339,#276,#277);
#228=AXIS2_PLACEMENT_3D('',#340,#278,#279);
#229=AXIS2_PLACEMENT_3D('',#341,#280,#281);
#230=AXIS2_PLACEMENT_3D('',#343,#282,#283);
#231=AXIS2_PLACEMENT_3D('',#344,#284,#285);
#232=AXIS2_PLACEMENT_3D('',#346,#286,#287);
#233=AXIS2_PLACEMENT_3D('',#348,#288,#289);
#234=AXIS2_PLACEMENT_3D('',#349,#290,#291);
#235=AXIS2_PLACEMENT_3D('',#351,#293,#294);
#236=AXIS2_PLACEMENT_3D('',#352,#295,#296);
#237=AXIS2_PLACEMENT_3D('',#353,#297,#298);
#238=AXIS2_PLACEMENT_3D('',#355,#299,#300);
#239=AXIS2_PLACEMENT_3D('',#357,#302,#303);
#240=AXIS2_PLACEMENT_3D('',#359,#304,#305);
#241=AXIS2_PLACEMENT_3D('',#360,#306,#307);
#242=DIRECTION('axis',(0.,0.,1.));
#243=DIRECTION('refdir',(1.,0.,0.));
#244=DIRECTION('center_axis',(1.,0.,0.));
#245=DIRECTION('ref_axis',(0.,-1.,0.));
#246=DIRECTION('center_axis',(-1.,0.,0.));
#247=DIRECTION('ref_axis',(0.,-1.,0.));
#248=DIRECTION('center_axis',(-1.,0.,0.));
#249=DIRECTION('ref_axis',(0.,-1.,0.));
#250=DIRECTION('',(-0.707106781186548,-0.707106781186548,-8.65956056235493E-17));
#251=DIRECTION('center_axis',(1.,0.,0.));
#252=DIRECTION('ref_axis',(0.,-1.,0.));
#253=DIRECTION('center_axis',(-1.,0.,0.));
#254=DIRECTION('ref_axis',(0.,0.,1.));
#255=DIRECTION('center_axis',(1.,0.,0.));
#256=DIRECTION('ref_axis',(0.,1.,0.));
#257=DIRECTION('center_axis',(1.,0.,0.));
#258=DIRECTION('ref_axis',(0.,1.,0.));
#259=DIRECTION('center_axis',(1.,0.,0.));
#260=DIRECTION('ref_axis',(0.,1.,0.));
#261=DIRECTION('',(-1.,0.,0.));
#262=DIRECTION('center_axis',(1.,0.,0.));
#263=DIRECTION('ref_axis',(0.,1.,0.));
#264=DIRECTION('center_axis',(-1.,0.,0.));
#265=DIRECTION('ref_axis',(0.,-1.,0.));
#266=DIRECTION('center_axis',(-1.,0.,0.));
#267=DIRECTION('ref_axis',(0.,-1.,0.));
#268=DIRECTION('',(-0.707106781186548,0.707106781186548,8.65956056235493E-17));
#269=DIRECTION('center_axis',(1.,0.,0.));
#270=DIRECTION('ref_axis',(0.,-1.,0.));
#271=DIRECTION('center_axis',(1.,0.,0.));
#272=DIRECTION('ref_axis',(0.,-1.,0.));
#273=DIRECTION('center_axis',(1.,0.,0.));
#274=DIRECTION('ref_axis',(0.,1.,0.));
#275=DIRECTION('',(-1.,0.,0.));
#276=DIRECTION('center_axis',(1.,0.,0.));
#277=DIRECTION('ref_axis',(0.,1.,0.));
#278=DIRECTION('center_axis',(1.,0.,0.));
#279=DIRECTION('ref_axis',(0.,1.,0.));
#280=DIRECTION('center_axis',(1.,0.,0.));
#281=DIRECTION('ref_axis',(0.,0.,-1.));
#282=DIRECTION('center_axis',(1.,0.,0.));
#283=DIRECTION('ref_axis',(0.,1.,0.));
#284=DIRECTION('center_axis',(-1.,0.,0.));
#285=DIRECTION('ref_axis',(0.,0.,1.));
#286=DIRECTION('center_axis',(1.,0.,0.));
#287=DIRECTION('ref_axis',(0.,1.,0.));
#288=DIRECTION('center_axis',(1.,0.,0.));
#289=DIRECTION('ref_axis',(0.,1.,0.));
#290=DIRECTION('center_axis',(1.,0.,0.));
#291=DIRECTION('ref_axis',(0.,1.,0.));
#292=DIRECTION('',(-1.,0.,0.));
#293=DIRECTION('center_axis',(1.,0.,0.));
#294=DIRECTION('ref_axis',(0.,0.,-1.));
#295=DIRECTION('center_axis',(0.,-1.,-1.22464679914735E-16));
#296=DIRECTION('ref_axis',(0.,-1.22464679914735E-16,1.));
#297=DIRECTION('center_axis',(1.,0.,0.));
#298=DIRECTION('ref_axis',(0.,1.,0.));
#299=DIRECTION('center_axis',(1.,0.,0.));
#300=DIRECTION('ref_axis',(0.,1.,0.));
#301=DIRECTION('',(-1.,0.,0.));
#302=DIRECTION('center_axis',(1.,0.,0.));
#303=DIRECTION('ref_axis',(0.,0.,-1.));
#304=DIRECTION('center_axis',(1.,0.,0.));
#305=DIRECTION('ref_axis',(0.,1.,0.));
#306=DIRECTION('center_axis',(1.,0.,0.));
#307=DIRECTION('ref_axis',(0.,1.,0.));
#308=DIRECTION('',(-1.,0.,0.));
#309=CARTESIAN_POINT('',(0.,0.,0.));
#310=CARTESIAN_POINT('Origin',(-2.9,0.,0.));
#311=CARTESIAN_POINT('',(-2.8,8.5,-1.04094977927525E-15));
#312=CARTESIAN_POINT('',(-2.8,-8.5,-1.04094977927525E-15));
#313=CARTESIAN_POINT('Origin',(-2.8,0.,0.));
#314=CARTESIAN_POINT('Origin',(-2.8,0.,0.));
#315=CARTESIAN_POINT('',(-3.,8.3,1.0164568432923E-15));
#316=CARTESIAN_POINT('',(-2.9,8.4,1.02870331128378E-15));
#317=CARTESIAN_POINT('Origin',(-3.,0.,0.));
#318=CARTESIAN_POINT('Origin',(-3.,6.375,0.));
#319=CARTESIAN_POINT('',(-3.,-4.25,-5.20474889637625E-16));
#320=CARTESIAN_POINT('Origin',(-3.,0.,0.));
#321=CARTESIAN_POINT('Origin',(-2.6180339887499,0.,0.));
#322=CARTESIAN_POINT('',(-2.23606797749979,-8.5,-1.04094977927525E-15));
#323=CARTESIAN_POINT('',(-2.23606797749979,-1.04094977927525E-15,8.5));
#324=CARTESIAN_POINT('Origin',(-2.23606797749979,0.,0.));
#325=CARTESIAN_POINT('',(-2.6180339887499,-8.5,-1.04094977927525E-15));
#326=CARTESIAN_POINT('Origin',(-2.23606797749979,0.,0.));
#327=CARTESIAN_POINT('Origin',(2.9,0.,0.));
#328=CARTESIAN_POINT('',(3.,8.3,-1.0164568432923E-15));
#329=CARTESIAN_POINT('Origin',(3.,0.,0.));
#330=CARTESIAN_POINT('',(2.8,8.5,1.04094977927525E-15));
#331=CARTESIAN_POINT('',(2.9,8.4,1.02870331128378E-15));
#332=CARTESIAN_POINT('',(2.8,-8.5,-1.04094977927525E-15));
#333=CARTESIAN_POINT('Origin',(2.8,0.,0.));
#334=CARTESIAN_POINT('Origin',(2.8,0.,0.));
#335=CARTESIAN_POINT('Origin',(2.6180339887499,0.,0.));
#336=CARTESIAN_POINT('',(2.23606797749979,-8.5,-1.04094977927525E-15));
#337=CARTESIAN_POINT('',(2.6180339887499,-8.5,-1.04094977927525E-15));
#338=CARTESIAN_POINT('',(2.23606797749979,-1.04094977927525E-15,8.5));
#339=CARTESIAN_POINT('Origin',(2.23606797749979,0.,0.));
#340=CARTESIAN_POINT('Origin',(2.23606797749979,0.,0.));
#341=CARTESIAN_POINT('Origin',(3.,6.375,0.));
#342=CARTESIAN_POINT('',(3.,-4.25,-5.20474889637625E-16));
#343=CARTESIAN_POINT('Origin',(3.,0.,0.));
#344=CARTESIAN_POINT('Origin',(-4.,3.375,0.));
#345=CARTESIAN_POINT('',(-4.,-4.25,-5.20474889637625E-16));
#346=CARTESIAN_POINT('Origin',(-4.,0.,0.));
#347=CARTESIAN_POINT('',(-4.,-2.5,-3.06161699786838E-16));
#348=CARTESIAN_POINT('Origin',(-4.,0.,0.));
#349=CARTESIAN_POINT('Origin',(-3.5,0.,0.));
#350=CARTESIAN_POINT('',(-3.5,-4.25,-5.20474889637625E-16));
#351=CARTESIAN_POINT('Origin',(0.,0.,0.));
#352=CARTESIAN_POINT('Origin',(0.,-1.28587913910472E-15,10.5));
#353=CARTESIAN_POINT('Origin',(3.5,0.,0.));
#354=CARTESIAN_POINT('',(4.,-4.25,-5.20474889637625E-16));
#355=CARTESIAN_POINT('Origin',(4.,0.,0.));
#356=CARTESIAN_POINT('',(3.5,-4.25,-5.20474889637625E-16));
#357=CARTESIAN_POINT('Origin',(4.,3.375,0.));
#358=CARTESIAN_POINT('',(4.,-2.5,-3.06161699786838E-16));
#359=CARTESIAN_POINT('Origin',(4.,0.,0.));
#360=CARTESIAN_POINT('Origin',(0.,0.,0.));
#361=CARTESIAN_POINT('',(0.,-2.5,-3.06161699786838E-16));
#362=UNCERTAINTY_MEASURE_WITH_UNIT(LENGTH_MEASURE(0.01),#366,
'DISTANCE_ACCURACY_VALUE',
'Maximum model space distance between geometric entities at asserted c
onnectivities');
#363=UNCERTAINTY_MEASURE_WITH_UNIT(LENGTH_MEASURE(0.01),#366,
'DISTANCE_ACCURACY_VALUE',
'Maximum model space distance between geometric entities at asserted c
onnectivities');
#364=(
GEOMETRIC_REPRESENTATION_CONTEXT(3)
GLOBAL_UNCERTAINTY_ASSIGNED_CONTEXT((#362))
GLOBAL_UNIT_ASSIGNED_CONTEXT((#366,#368,#369))
REPRESENTATION_CONTEXT('','3D')
);
#365=(
GEOMETRIC_REPRESENTATION_CONTEXT(3)
GLOBAL_UNCERTAINTY_ASSIGNED_CONTEXT((#363))
GLOBAL_UNIT_ASSIGNED_CONTEXT((#366,#368,#369))
REPRESENTATION_CONTEXT('','3D')
);
#366=(
LENGTH_UNIT()
NAMED_UNIT(*)
SI_UNIT(.MILLI.,.METRE.)
);
#367=(
LENGTH_UNIT()
NAMED_UNIT(*)
SI_UNIT(.CENTI.,.METRE.)
);
#368=(
NAMED_UNIT(*)
PLANE_ANGLE_UNIT()
SI_UNIT($,.RADIAN.)
);
#369=(
NAMED_UNIT(*)
SI_UNIT($,.STERADIAN.)
SOLID_ANGLE_UNIT()
);
#370=SHAPE_DEFINITION_REPRESENTATION(#371,#372);
#371=PRODUCT_DEFINITION_SHAPE('',$,#374);
#372=SHAPE_REPRESENTATION('',(#212),#364);
#373=PRODUCT_DEFINITION_CONTEXT('part definition',#378,'design');
#374=PRODUCT_DEFINITION('80RT00012R-A','80RT00012R-A',#375,#373);
#375=PRODUCT_DEFINITION_FORMATION('A',$,#380);
#376=PRODUCT_RELATED_PRODUCT_CATEGORY('80RT00012R-A','80RT00012R-A',(#380));
#377=APPLICATION_PROTOCOL_DEFINITION('international standard',
'automotive_design',2009,#378);
#378=APPLICATION_CONTEXT(
'Core Data for Automotive Mechanical Design Process');
#379=PRODUCT_CONTEXT('part definition',#378,'mechanical');
#380=PRODUCT('80RT00012R-A','80RT00012R-A',
'ROTELLA DI=5 DE=17 SP=8 DT=6',(#379));
#381=PRESENTATION_STYLE_ASSIGNMENT((#382));
#382=SURFACE_STYLE_USAGE(.BOTH.,#385);
#383=SURFACE_STYLE_RENDERING_WITH_PROPERTIES($,#389,(#384));
#384=SURFACE_STYLE_TRANSPARENT(0.);
#385=SURFACE_SIDE_STYLE('',(#386,#383));
#386=SURFACE_STYLE_FILL_AREA(#387);
#387=FILL_AREA_STYLE('',(#388));
#388=FILL_AREA_STYLE_COLOUR('',#389);
#389=COLOUR_RGB('',0.956862745098039,0.956862745098039,0.956862745098039);
ENDSEC;
END-ISO-10303-21;
