ISO-10303-21;
HEADER;
/* Generated by software containing ST-Developer
 * from STEP Tools, Inc. (www.steptools.com) 
 */

FILE_DESCRIPTION(
/* description */ ('Translator using VaultInventorServer'),
/* implementation_level */ '2;1');

FILE_NAME(
/* name */ 
'C:\\DIERRE19\\Designs\\Storico\\FIORANO\\AUTOMAZIONE\\80\\RT\\CRUGC00
00014_A.stp',
/* time_stamp */ '2025-03-13T14:51:40+01:00',
/* author */ ('F.Vaccari'),
/* organization */ (''),
/* preprocessor_version */ 'ST-DEVELOPER v18.1',
/* originating_system */ 'Autodesk Inventor 2022',
/* authorisation */ '');

FILE_SCHEMA (('AUTOMOTIVE_DESIGN { 1 0 10303 214 3 1 1 }'));
ENDSEC;

DATA;
#10=MECHANICAL_DESIGN_GEOMETRIC_PRESENTATION_REPRESENTATION('',(#29,#30,
#31),#459);
#11=SHAPE_REPRESENTATION_RELATIONSHIP('SRR','None',#466,#12);
#12=ADVANCED_BREP_SHAPE_REPRESENTATION('',(#13),#458);
#13=MANIFOLD_SOLID_BREP('Solido1',#240);
#14=TOROIDAL_SURFACE('',#273,35.,1.);
#15=TOROIDAL_SURFACE('',#282,35.,1.);
#16=TOROIDAL_SURFACE('',#291,43.5,12.5);
#17=FACE_BOUND('',#50,.T.);
#18=FACE_BOUND('',#53,.T.);
#19=FACE_BOUND('',#57,.T.);
#20=FACE_BOUND('',#61,.T.);
#21=FACE_BOUND('',#65,.T.);
#22=FACE_BOUND('',#68,.T.);
#23=PLANE('',#266);
#24=PLANE('',#271);
#25=PLANE('',#281);
#26=PLANE('',#290);
#27=PLANE('',#295);
#28=PLANE('',#299);
#29=STYLED_ITEM('',(#476),#225);
#30=STYLED_ITEM('',(#477),#227);
#31=STYLED_ITEM('',(#475),#13);
#32=FACE_OUTER_BOUND('',#48,.T.);
#33=FACE_OUTER_BOUND('',#49,.T.);
#34=FACE_OUTER_BOUND('',#51,.T.);
#35=FACE_OUTER_BOUND('',#52,.T.);
#36=FACE_OUTER_BOUND('',#54,.T.);
#37=FACE_OUTER_BOUND('',#55,.T.);
#38=FACE_OUTER_BOUND('',#56,.T.);
#39=FACE_OUTER_BOUND('',#58,.T.);
#40=FACE_OUTER_BOUND('',#59,.T.);
#41=FACE_OUTER_BOUND('',#60,.T.);
#42=FACE_OUTER_BOUND('',#62,.T.);
#43=FACE_OUTER_BOUND('',#63,.T.);
#44=FACE_OUTER_BOUND('',#64,.T.);
#45=FACE_OUTER_BOUND('',#66,.T.);
#46=FACE_OUTER_BOUND('',#67,.T.);
#47=FACE_OUTER_BOUND('',#69,.T.);
#48=EDGE_LOOP('',(#157,#158,#159,#160));
#49=EDGE_LOOP('',(#161));
#50=EDGE_LOOP('',(#162));
#51=EDGE_LOOP('',(#163,#164,#165,#166));
#52=EDGE_LOOP('',(#167));
#53=EDGE_LOOP('',(#168));
#54=EDGE_LOOP('',(#169,#170,#171,#172,#173));
#55=EDGE_LOOP('',(#174,#175,#176,#177,#178,#179));
#56=EDGE_LOOP('',(#180));
#57=EDGE_LOOP('',(#181));
#58=EDGE_LOOP('',(#182,#183,#184,#185,#186));
#59=EDGE_LOOP('',(#187,#188,#189,#190,#191,#192));
#60=EDGE_LOOP('',(#193));
#61=EDGE_LOOP('',(#194));
#62=EDGE_LOOP('',(#195,#196,#197,#198,#199,#200));
#63=EDGE_LOOP('',(#201,#202,#203,#204));
#64=EDGE_LOOP('',(#205));
#65=EDGE_LOOP('',(#206));
#66=EDGE_LOOP('',(#207,#208,#209,#210));
#67=EDGE_LOOP('',(#211));
#68=EDGE_LOOP('',(#212));
#69=EDGE_LOOP('',(#213,#214,#215,#216));
#70=LINE('',#394,#77);
#71=LINE('',#403,#78);
#72=LINE('',#418,#79);
#73=LINE('',#435,#80);
#74=LINE('',#443,#81);
#75=LINE('',#450,#82);
#76=LINE('',#455,#83);
#77=VECTOR('',#308,27.);
#78=VECTOR('',#319,27.);
#79=VECTOR('',#338,36.);
#80=VECTOR('',#359,36.);
#81=VECTOR('',#372,19.25);
#82=VECTOR('',#381,19.25);
#83=VECTOR('',#388,12.5);
#84=CIRCLE('',#264,27.);
#85=CIRCLE('',#265,27.);
#86=CIRCLE('',#267,19.25);
#87=CIRCLE('',#269,27.);
#88=CIRCLE('',#270,27.);
#89=CIRCLE('',#272,19.25);
#90=CIRCLE('',#274,35.);
#91=CIRCLE('',#275,1.);
#92=CIRCLE('',#276,36.);
#93=CIRCLE('',#277,36.);
#94=CIRCLE('',#279,36.);
#95=CIRCLE('',#280,36.);
#96=CIRCLE('',#283,35.);
#97=CIRCLE('',#284,1.);
#98=CIRCLE('',#285,36.);
#99=CIRCLE('',#286,36.);
#100=CIRCLE('',#288,36.);
#101=CIRCLE('',#289,36.);
#102=CIRCLE('',#292,12.5);
#103=CIRCLE('',#294,19.25);
#104=CIRCLE('',#296,12.5);
#105=CIRCLE('',#298,19.25);
#106=CIRCLE('',#300,12.5);
#107=VERTEX_POINT('',#391);
#108=VERTEX_POINT('',#393);
#109=VERTEX_POINT('',#397);
#110=VERTEX_POINT('',#400);
#111=VERTEX_POINT('',#402);
#112=VERTEX_POINT('',#406);
#113=VERTEX_POINT('',#409);
#114=VERTEX_POINT('',#411);
#115=VERTEX_POINT('',#413);
#116=VERTEX_POINT('',#417);
#117=VERTEX_POINT('',#419);
#118=VERTEX_POINT('',#424);
#119=VERTEX_POINT('',#426);
#120=VERTEX_POINT('',#428);
#121=VERTEX_POINT('',#432);
#122=VERTEX_POINT('',#433);
#123=VERTEX_POINT('',#441);
#124=VERTEX_POINT('',#445);
#125=VERTEX_POINT('',#448);
#126=VERTEX_POINT('',#452);
#127=EDGE_CURVE('',#107,#107,#84,.T.);
#128=EDGE_CURVE('',#107,#108,#70,.T.);
#129=EDGE_CURVE('',#108,#108,#85,.T.);
#130=EDGE_CURVE('',#109,#109,#86,.T.);
#131=EDGE_CURVE('',#110,#110,#87,.T.);
#132=EDGE_CURVE('',#110,#111,#71,.T.);
#133=EDGE_CURVE('',#111,#111,#88,.T.);
#134=EDGE_CURVE('',#112,#112,#89,.T.);
#135=EDGE_CURVE('',#113,#113,#90,.T.);
#136=EDGE_CURVE('',#113,#114,#91,.T.);
#137=EDGE_CURVE('',#114,#115,#92,.T.);
#138=EDGE_CURVE('',#115,#114,#93,.T.);
#139=EDGE_CURVE('',#115,#116,#72,.T.);
#140=EDGE_CURVE('',#116,#117,#94,.T.);
#141=EDGE_CURVE('',#117,#116,#95,.T.);
#142=EDGE_CURVE('',#118,#118,#96,.T.);
#143=EDGE_CURVE('',#118,#119,#97,.T.);
#144=EDGE_CURVE('',#119,#120,#98,.T.);
#145=EDGE_CURVE('',#120,#119,#99,.T.);
#146=EDGE_CURVE('',#121,#122,#100,.T.);
#147=EDGE_CURVE('',#122,#120,#73,.T.);
#148=EDGE_CURVE('',#122,#121,#101,.T.);
#149=EDGE_CURVE('',#121,#117,#102,.T.);
#150=EDGE_CURVE('',#123,#123,#103,.T.);
#151=EDGE_CURVE('',#123,#109,#74,.T.);
#152=EDGE_CURVE('',#124,#124,#104,.T.);
#153=EDGE_CURVE('',#125,#125,#105,.T.);
#154=EDGE_CURVE('',#125,#112,#75,.T.);
#155=EDGE_CURVE('',#126,#126,#106,.T.);
#156=EDGE_CURVE('',#124,#126,#76,.T.);
#157=ORIENTED_EDGE('',*,*,#127,.F.);
#158=ORIENTED_EDGE('',*,*,#128,.T.);
#159=ORIENTED_EDGE('',*,*,#129,.F.);
#160=ORIENTED_EDGE('',*,*,#128,.F.);
#161=ORIENTED_EDGE('',*,*,#129,.T.);
#162=ORIENTED_EDGE('',*,*,#130,.T.);
#163=ORIENTED_EDGE('',*,*,#131,.F.);
#164=ORIENTED_EDGE('',*,*,#132,.T.);
#165=ORIENTED_EDGE('',*,*,#133,.T.);
#166=ORIENTED_EDGE('',*,*,#132,.F.);
#167=ORIENTED_EDGE('',*,*,#133,.F.);
#168=ORIENTED_EDGE('',*,*,#134,.F.);
#169=ORIENTED_EDGE('',*,*,#135,.T.);
#170=ORIENTED_EDGE('',*,*,#136,.T.);
#171=ORIENTED_EDGE('',*,*,#137,.T.);
#172=ORIENTED_EDGE('',*,*,#138,.T.);
#173=ORIENTED_EDGE('',*,*,#136,.F.);
#174=ORIENTED_EDGE('',*,*,#138,.F.);
#175=ORIENTED_EDGE('',*,*,#139,.T.);
#176=ORIENTED_EDGE('',*,*,#140,.T.);
#177=ORIENTED_EDGE('',*,*,#141,.T.);
#178=ORIENTED_EDGE('',*,*,#139,.F.);
#179=ORIENTED_EDGE('',*,*,#137,.F.);
#180=ORIENTED_EDGE('',*,*,#135,.F.);
#181=ORIENTED_EDGE('',*,*,#131,.T.);
#182=ORIENTED_EDGE('',*,*,#142,.T.);
#183=ORIENTED_EDGE('',*,*,#143,.T.);
#184=ORIENTED_EDGE('',*,*,#144,.T.);
#185=ORIENTED_EDGE('',*,*,#145,.T.);
#186=ORIENTED_EDGE('',*,*,#143,.F.);
#187=ORIENTED_EDGE('',*,*,#146,.T.);
#188=ORIENTED_EDGE('',*,*,#147,.T.);
#189=ORIENTED_EDGE('',*,*,#144,.F.);
#190=ORIENTED_EDGE('',*,*,#145,.F.);
#191=ORIENTED_EDGE('',*,*,#147,.F.);
#192=ORIENTED_EDGE('',*,*,#148,.T.);
#193=ORIENTED_EDGE('',*,*,#142,.F.);
#194=ORIENTED_EDGE('',*,*,#127,.T.);
#195=ORIENTED_EDGE('',*,*,#146,.F.);
#196=ORIENTED_EDGE('',*,*,#149,.T.);
#197=ORIENTED_EDGE('',*,*,#140,.F.);
#198=ORIENTED_EDGE('',*,*,#141,.F.);
#199=ORIENTED_EDGE('',*,*,#149,.F.);
#200=ORIENTED_EDGE('',*,*,#148,.F.);
#201=ORIENTED_EDGE('',*,*,#150,.T.);
#202=ORIENTED_EDGE('',*,*,#151,.T.);
#203=ORIENTED_EDGE('',*,*,#130,.F.);
#204=ORIENTED_EDGE('',*,*,#151,.F.);
#205=ORIENTED_EDGE('',*,*,#150,.F.);
#206=ORIENTED_EDGE('',*,*,#152,.F.);
#207=ORIENTED_EDGE('',*,*,#153,.F.);
#208=ORIENTED_EDGE('',*,*,#154,.T.);
#209=ORIENTED_EDGE('',*,*,#134,.T.);
#210=ORIENTED_EDGE('',*,*,#154,.F.);
#211=ORIENTED_EDGE('',*,*,#153,.T.);
#212=ORIENTED_EDGE('',*,*,#155,.T.);
#213=ORIENTED_EDGE('',*,*,#152,.T.);
#214=ORIENTED_EDGE('',*,*,#156,.T.);
#215=ORIENTED_EDGE('',*,*,#155,.F.);
#216=ORIENTED_EDGE('',*,*,#156,.F.);
#217=CYLINDRICAL_SURFACE('',#263,27.);
#218=CYLINDRICAL_SURFACE('',#268,27.);
#219=CYLINDRICAL_SURFACE('',#278,36.);
#220=CYLINDRICAL_SURFACE('',#287,36.);
#221=CYLINDRICAL_SURFACE('',#293,19.25);
#222=CYLINDRICAL_SURFACE('',#297,19.25);
#223=CYLINDRICAL_SURFACE('',#301,12.5);
#224=ADVANCED_FACE('',(#32),#217,.F.);
#225=ADVANCED_FACE('',(#33,#17),#23,.F.);
#226=ADVANCED_FACE('',(#34),#218,.F.);
#227=ADVANCED_FACE('',(#35,#18),#24,.T.);
#228=ADVANCED_FACE('',(#36),#14,.T.);
#229=ADVANCED_FACE('',(#37),#219,.T.);
#230=ADVANCED_FACE('',(#38,#19),#25,.T.);
#231=ADVANCED_FACE('',(#39),#15,.T.);
#232=ADVANCED_FACE('',(#40),#220,.T.);
#233=ADVANCED_FACE('',(#41,#20),#26,.F.);
#234=ADVANCED_FACE('',(#42),#16,.F.);
#235=ADVANCED_FACE('',(#43),#221,.T.);
#236=ADVANCED_FACE('',(#44,#21),#27,.F.);
#237=ADVANCED_FACE('',(#45),#222,.T.);
#238=ADVANCED_FACE('',(#46,#22),#28,.T.);
#239=ADVANCED_FACE('',(#47),#223,.F.);
#240=CLOSED_SHELL('',(#224,#225,#226,#227,#228,#229,#230,#231,#232,#233,
#234,#235,#236,#237,#238,#239));
#241=DERIVED_UNIT_ELEMENT(#244,1.);
#242=DERIVED_UNIT_ELEMENT(#461,-3.);
#243=DIMENSIONAL_EXPONENTS(1.,0.,0.,0.,0.,0.,0.);
#244=(
CONVERSION_BASED_UNIT('gram',#246)
MASS_UNIT()
NAMED_UNIT(#243)
);
#245=(
MASS_UNIT()
NAMED_UNIT(*)
SI_UNIT(.KILO.,.GRAM.)
);
#246=MASS_MEASURE_WITH_UNIT(MASS_MEASURE(0.001),#245);
#247=DERIVED_UNIT((#241,#242));
#248=MEASURE_REPRESENTATION_ITEM('density measure',
POSITIVE_RATIO_MEASURE(1.),#247);
#249=PROPERTY_DEFINITION_REPRESENTATION(#254,#251);
#250=PROPERTY_DEFINITION_REPRESENTATION(#255,#252);
#251=REPRESENTATION('material name',(#253),#458);
#252=REPRESENTATION('density',(#248),#458);
#253=DESCRIPTIVE_REPRESENTATION_ITEM('Generic','Generic');
#254=PROPERTY_DEFINITION('material property','material name',#468);
#255=PROPERTY_DEFINITION('material property','density of part',#468);
#256=DATE_TIME_ROLE('creation_date');
#257=APPLIED_DATE_AND_TIME_ASSIGNMENT(#258,#256,(#468));
#258=DATE_AND_TIME(#259,#260);
#259=CALENDAR_DATE(2014,14,2);
#260=LOCAL_TIME(0,0,0.,#261);
#261=COORDINATED_UNIVERSAL_TIME_OFFSET(0,0,.BEHIND.);
#262=AXIS2_PLACEMENT_3D('placement',#389,#302,#303);
#263=AXIS2_PLACEMENT_3D('',#390,#304,#305);
#264=AXIS2_PLACEMENT_3D('',#392,#306,#307);
#265=AXIS2_PLACEMENT_3D('',#395,#309,#310);
#266=AXIS2_PLACEMENT_3D('',#396,#311,#312);
#267=AXIS2_PLACEMENT_3D('',#398,#313,#314);
#268=AXIS2_PLACEMENT_3D('',#399,#315,#316);
#269=AXIS2_PLACEMENT_3D('',#401,#317,#318);
#270=AXIS2_PLACEMENT_3D('',#404,#320,#321);
#271=AXIS2_PLACEMENT_3D('',#405,#322,#323);
#272=AXIS2_PLACEMENT_3D('',#407,#324,#325);
#273=AXIS2_PLACEMENT_3D('',#408,#326,#327);
#274=AXIS2_PLACEMENT_3D('',#410,#328,#329);
#275=AXIS2_PLACEMENT_3D('',#412,#330,#331);
#276=AXIS2_PLACEMENT_3D('',#414,#332,#333);
#277=AXIS2_PLACEMENT_3D('',#415,#334,#335);
#278=AXIS2_PLACEMENT_3D('',#416,#336,#337);
#279=AXIS2_PLACEMENT_3D('',#420,#339,#340);
#280=AXIS2_PLACEMENT_3D('',#421,#341,#342);
#281=AXIS2_PLACEMENT_3D('',#422,#343,#344);
#282=AXIS2_PLACEMENT_3D('',#423,#345,#346);
#283=AXIS2_PLACEMENT_3D('',#425,#347,#348);
#284=AXIS2_PLACEMENT_3D('',#427,#349,#350);
#285=AXIS2_PLACEMENT_3D('',#429,#351,#352);
#286=AXIS2_PLACEMENT_3D('',#430,#353,#354);
#287=AXIS2_PLACEMENT_3D('',#431,#355,#356);
#288=AXIS2_PLACEMENT_3D('',#434,#357,#358);
#289=AXIS2_PLACEMENT_3D('',#436,#360,#361);
#290=AXIS2_PLACEMENT_3D('',#437,#362,#363);
#291=AXIS2_PLACEMENT_3D('',#438,#364,#365);
#292=AXIS2_PLACEMENT_3D('',#439,#366,#367);
#293=AXIS2_PLACEMENT_3D('',#440,#368,#369);
#294=AXIS2_PLACEMENT_3D('',#442,#370,#371);
#295=AXIS2_PLACEMENT_3D('',#444,#373,#374);
#296=AXIS2_PLACEMENT_3D('',#446,#375,#376);
#297=AXIS2_PLACEMENT_3D('',#447,#377,#378);
#298=AXIS2_PLACEMENT_3D('',#449,#379,#380);
#299=AXIS2_PLACEMENT_3D('',#451,#382,#383);
#300=AXIS2_PLACEMENT_3D('',#453,#384,#385);
#301=AXIS2_PLACEMENT_3D('',#454,#386,#387);
#302=DIRECTION('axis',(0.,0.,1.));
#303=DIRECTION('refdir',(1.,0.,0.));
#304=DIRECTION('center_axis',(0.,-1.,0.));
#305=DIRECTION('ref_axis',(-1.,0.,0.));
#306=DIRECTION('center_axis',(0.,1.,0.));
#307=DIRECTION('ref_axis',(-1.,0.,0.));
#308=DIRECTION('',(0.,1.,0.));
#309=DIRECTION('center_axis',(0.,-1.,0.));
#310=DIRECTION('ref_axis',(-1.,0.,0.));
#311=DIRECTION('center_axis',(0.,1.,0.));
#312=DIRECTION('ref_axis',(0.,0.,1.));
#313=DIRECTION('center_axis',(0.,1.,0.));
#314=DIRECTION('ref_axis',(-1.,0.,0.));
#315=DIRECTION('center_axis',(0.,-1.,0.));
#316=DIRECTION('ref_axis',(-1.,0.,0.));
#317=DIRECTION('center_axis',(0.,-1.,0.));
#318=DIRECTION('ref_axis',(-1.,0.,0.));
#319=DIRECTION('',(0.,-1.,0.));
#320=DIRECTION('center_axis',(0.,-1.,0.));
#321=DIRECTION('ref_axis',(-1.,0.,0.));
#322=DIRECTION('center_axis',(0.,1.,0.));
#323=DIRECTION('ref_axis',(0.,0.,1.));
#324=DIRECTION('center_axis',(0.,1.,0.));
#325=DIRECTION('ref_axis',(-1.,0.,0.));
#326=DIRECTION('center_axis',(0.,1.,0.));
#327=DIRECTION('ref_axis',(0.,0.,1.));
#328=DIRECTION('center_axis',(0.,-1.,0.));
#329=DIRECTION('ref_axis',(1.,0.,0.));
#330=DIRECTION('center_axis',(-1.,0.,1.22464679914735E-16));
#331=DIRECTION('ref_axis',(-1.22464679914735E-16,0.,-1.));
#332=DIRECTION('center_axis',(0.,1.,0.));
#333=DIRECTION('ref_axis',(1.,0.,0.));
#334=DIRECTION('center_axis',(0.,1.,0.));
#335=DIRECTION('ref_axis',(1.,0.,0.));
#336=DIRECTION('center_axis',(0.,1.,0.));
#337=DIRECTION('ref_axis',(1.,0.,0.));
#338=DIRECTION('',(0.,-1.,0.));
#339=DIRECTION('center_axis',(0.,1.,0.));
#340=DIRECTION('ref_axis',(1.,0.,0.));
#341=DIRECTION('center_axis',(0.,1.,0.));
#342=DIRECTION('ref_axis',(1.,0.,0.));
#343=DIRECTION('center_axis',(0.,1.,0.));
#344=DIRECTION('ref_axis',(0.,0.,1.));
#345=DIRECTION('center_axis',(0.,-1.,0.));
#346=DIRECTION('ref_axis',(0.,0.,-1.));
#347=DIRECTION('center_axis',(0.,1.,0.));
#348=DIRECTION('ref_axis',(1.,0.,0.));
#349=DIRECTION('center_axis',(-1.,0.,-1.22464679914735E-16));
#350=DIRECTION('ref_axis',(-1.22464679914735E-16,0.,1.));
#351=DIRECTION('center_axis',(0.,-1.,0.));
#352=DIRECTION('ref_axis',(1.,0.,0.));
#353=DIRECTION('center_axis',(0.,-1.,0.));
#354=DIRECTION('ref_axis',(1.,0.,0.));
#355=DIRECTION('center_axis',(0.,1.,0.));
#356=DIRECTION('ref_axis',(1.,0.,0.));
#357=DIRECTION('center_axis',(0.,-1.,0.));
#358=DIRECTION('ref_axis',(1.,0.,0.));
#359=DIRECTION('',(0.,-1.,0.));
#360=DIRECTION('center_axis',(0.,-1.,0.));
#361=DIRECTION('ref_axis',(1.,0.,0.));
#362=DIRECTION('center_axis',(0.,1.,0.));
#363=DIRECTION('ref_axis',(0.,0.,1.));
#364=DIRECTION('center_axis',(0.,-1.,0.));
#365=DIRECTION('ref_axis',(0.,0.,-1.));
#366=DIRECTION('center_axis',(1.,0.,1.22464679914735E-16));
#367=DIRECTION('ref_axis',(-1.22464679914735E-16,0.,1.));
#368=DIRECTION('center_axis',(0.,1.,0.));
#369=DIRECTION('ref_axis',(-1.,0.,0.));
#370=DIRECTION('center_axis',(0.,1.,0.));
#371=DIRECTION('ref_axis',(-1.,0.,0.));
#372=DIRECTION('',(0.,1.,0.));
#373=DIRECTION('center_axis',(0.,1.,0.));
#374=DIRECTION('ref_axis',(0.,0.,1.));
#375=DIRECTION('center_axis',(0.,-1.,0.));
#376=DIRECTION('ref_axis',(-1.,0.,0.));
#377=DIRECTION('center_axis',(0.,1.,0.));
#378=DIRECTION('ref_axis',(-1.,0.,0.));
#379=DIRECTION('center_axis',(0.,1.,0.));
#380=DIRECTION('ref_axis',(-1.,0.,0.));
#381=DIRECTION('',(0.,-1.,0.));
#382=DIRECTION('center_axis',(0.,1.,0.));
#383=DIRECTION('ref_axis',(0.,0.,1.));
#384=DIRECTION('center_axis',(0.,-1.,0.));
#385=DIRECTION('ref_axis',(-1.,0.,0.));
#386=DIRECTION('center_axis',(0.,1.,0.));
#387=DIRECTION('ref_axis',(1.,0.,0.));
#388=DIRECTION('',(0.,1.,0.));
#389=CARTESIAN_POINT('',(0.,0.,0.));
#390=CARTESIAN_POINT('Origin',(0.,-11.9,0.));
#391=CARTESIAN_POINT('',(27.,-11.9,-3.30654635769785E-15));
#392=CARTESIAN_POINT('Origin',(0.,-11.9,0.));
#393=CARTESIAN_POINT('',(27.,-11.4,-3.30654635769785E-15));
#394=CARTESIAN_POINT('',(27.,-11.9,3.30654635769785E-15));
#395=CARTESIAN_POINT('Origin',(0.,-11.4,0.));
#396=CARTESIAN_POINT('Origin',(-2.75545529808154E-16,-11.4,0.));
#397=CARTESIAN_POINT('',(19.25,-11.4,-2.35744508835865E-15));
#398=CARTESIAN_POINT('Origin',(0.,-11.4,0.));
#399=CARTESIAN_POINT('Origin',(0.,11.9,0.));
#400=CARTESIAN_POINT('',(27.,11.9,-3.30654635769785E-15));
#401=CARTESIAN_POINT('Origin',(0.,11.9,0.));
#402=CARTESIAN_POINT('',(27.,11.4,-3.30654635769785E-15));
#403=CARTESIAN_POINT('',(27.,11.9,3.30654635769785E-15));
#404=CARTESIAN_POINT('Origin',(0.,11.4,0.));
#405=CARTESIAN_POINT('Origin',(-2.75545529808154E-16,11.4,0.));
#406=CARTESIAN_POINT('',(19.25,11.4,-2.35744508835865E-15));
#407=CARTESIAN_POINT('Origin',(0.,11.4,0.));
#408=CARTESIAN_POINT('Origin',(0.,10.9,0.));
#409=CARTESIAN_POINT('',(-4.28626379701574E-15,11.9,-35.));
#410=CARTESIAN_POINT('Origin',(0.,11.9,0.));
#411=CARTESIAN_POINT('',(-4.40872847693047E-15,10.9,-36.));
#412=CARTESIAN_POINT('Origin',(-4.28626379701574E-15,10.9,-35.));
#413=CARTESIAN_POINT('',(-36.,10.9,4.40872847693047E-15));
#414=CARTESIAN_POINT('Origin',(0.,10.9,0.));
#415=CARTESIAN_POINT('Origin',(0.,10.9,0.));
#416=CARTESIAN_POINT('Origin',(0.,0.,0.));
#417=CARTESIAN_POINT('',(-36.,10.,4.40872847693047E-15));
#418=CARTESIAN_POINT('',(-36.,0.,4.40872847693047E-15));
#419=CARTESIAN_POINT('',(0.,10.,36.));
#420=CARTESIAN_POINT('Origin',(0.,10.,0.));
#421=CARTESIAN_POINT('Origin',(0.,10.,0.));
#422=CARTESIAN_POINT('Origin',(2.01216889104073E-15,11.9,-8.22387425648264E-16));
#423=CARTESIAN_POINT('Origin',(0.,-10.9,0.));
#424=CARTESIAN_POINT('',(-4.28626379701574E-15,-11.9,35.));
#425=CARTESIAN_POINT('Origin',(0.,-11.9,0.));
#426=CARTESIAN_POINT('',(-4.40872847693047E-15,-10.9,36.));
#427=CARTESIAN_POINT('Origin',(-4.28626379701574E-15,-10.9,35.));
#428=CARTESIAN_POINT('',(-36.,-10.9,-4.40872847693047E-15));
#429=CARTESIAN_POINT('Origin',(0.,-10.9,0.));
#430=CARTESIAN_POINT('Origin',(0.,-10.9,0.));
#431=CARTESIAN_POINT('Origin',(0.,0.,0.));
#432=CARTESIAN_POINT('',(0.,-10.,36.));
#433=CARTESIAN_POINT('',(-36.,-10.,4.40872847693047E-15));
#434=CARTESIAN_POINT('Origin',(0.,-10.,0.));
#435=CARTESIAN_POINT('',(-36.,0.,4.40872847693047E-15));
#436=CARTESIAN_POINT('Origin',(0.,-10.,0.));
#437=CARTESIAN_POINT('Origin',(2.01216889104073E-15,-11.9,-8.22387425648264E-16));
#438=CARTESIAN_POINT('Origin',(0.,0.,0.));
#439=CARTESIAN_POINT('Origin',(-5.32721357629099E-15,0.,43.5));
#440=CARTESIAN_POINT('Origin',(0.,-11.9,0.));
#441=CARTESIAN_POINT('',(19.25,-12.9,-2.35744508835865E-15));
#442=CARTESIAN_POINT('Origin',(0.,-12.9,0.));
#443=CARTESIAN_POINT('',(19.25,-11.9,-2.35744508835865E-15));
#444=CARTESIAN_POINT('Origin',(-9.65439402125235E-16,-12.9,3.84492822381007E-16));
#445=CARTESIAN_POINT('',(-12.5,-12.9,1.53080849893419E-15));
#446=CARTESIAN_POINT('Origin',(0.,-12.9,0.));
#447=CARTESIAN_POINT('Origin',(0.,11.9,0.));
#448=CARTESIAN_POINT('',(19.25,12.9,-2.35744508835865E-15));
#449=CARTESIAN_POINT('Origin',(0.,12.9,0.));
#450=CARTESIAN_POINT('',(19.25,11.9,-2.35744508835865E-15));
#451=CARTESIAN_POINT('Origin',(-9.65439402125235E-16,12.9,3.84492822381007E-16));
#452=CARTESIAN_POINT('',(-12.5,12.9,1.53080849893419E-15));
#453=CARTESIAN_POINT('Origin',(0.,12.9,0.));
#454=CARTESIAN_POINT('Origin',(0.,0.,0.));
#455=CARTESIAN_POINT('',(-12.5,0.,1.53080849893419E-15));
#456=UNCERTAINTY_MEASURE_WITH_UNIT(LENGTH_MEASURE(0.01),#460,
'DISTANCE_ACCURACY_VALUE',
'Maximum model space distance between geometric entities at asserted c
onnectivities');
#457=UNCERTAINTY_MEASURE_WITH_UNIT(LENGTH_MEASURE(0.01),#460,
'DISTANCE_ACCURACY_VALUE',
'Maximum model space distance between geometric entities at asserted c
onnectivities');
#458=(
GEOMETRIC_REPRESENTATION_CONTEXT(3)
GLOBAL_UNCERTAINTY_ASSIGNED_CONTEXT((#456))
GLOBAL_UNIT_ASSIGNED_CONTEXT((#460,#462,#463))
REPRESENTATION_CONTEXT('','3D')
);
#459=(
GEOMETRIC_REPRESENTATION_CONTEXT(3)
GLOBAL_UNCERTAINTY_ASSIGNED_CONTEXT((#457))
GLOBAL_UNIT_ASSIGNED_CONTEXT((#460,#462,#463))
REPRESENTATION_CONTEXT('','3D')
);
#460=(
LENGTH_UNIT()
NAMED_UNIT(*)
SI_UNIT(.MILLI.,.METRE.)
);
#461=(
LENGTH_UNIT()
NAMED_UNIT(*)
SI_UNIT(.CENTI.,.METRE.)
);
#462=(
NAMED_UNIT(*)
PLANE_ANGLE_UNIT()
SI_UNIT($,.RADIAN.)
);
#463=(
NAMED_UNIT(*)
SI_UNIT($,.STERADIAN.)
SOLID_ANGLE_UNIT()
);
#464=SHAPE_DEFINITION_REPRESENTATION(#465,#466);
#465=PRODUCT_DEFINITION_SHAPE('',$,#468);
#466=SHAPE_REPRESENTATION('',(#262),#458);
#467=PRODUCT_DEFINITION_CONTEXT('part definition',#472,'design');
#468=PRODUCT_DEFINITION('CRUGC0000014','CRUGC0000014',#469,#467);
#469=PRODUCT_DEFINITION_FORMATION('A',$,#474);
#470=PRODUCT_RELATED_PRODUCT_CATEGORY('CRUGC0000014','CRUGC0000014',(#474));
#471=APPLICATION_PROTOCOL_DEFINITION('international standard',
'automotive_design',2009,#472);
#472=APPLICATION_CONTEXT(
'Core Data for Automotive Mechanical Design Process');
#473=PRODUCT_CONTEXT('part definition',#472,'mechanical');
#474=PRODUCT('CRUGC0000014','CRUGC0000014',
'ROTELLA DI=25 DE=72 SP=25,8 DT=25',(#473));
#475=PRESENTATION_STYLE_ASSIGNMENT((#478));
#476=PRESENTATION_STYLE_ASSIGNMENT((#479));
#477=PRESENTATION_STYLE_ASSIGNMENT((#480));
#478=SURFACE_STYLE_USAGE(.BOTH.,#487);
#479=SURFACE_STYLE_USAGE(.BOTH.,#488);
#480=SURFACE_STYLE_USAGE(.BOTH.,#489);
#481=SURFACE_STYLE_RENDERING_WITH_PROPERTIES($,#499,(#484));
#482=SURFACE_STYLE_RENDERING_WITH_PROPERTIES($,#500,(#485));
#483=SURFACE_STYLE_RENDERING_WITH_PROPERTIES($,#501,(#486));
#484=SURFACE_STYLE_TRANSPARENT(0.);
#485=SURFACE_STYLE_TRANSPARENT(0.);
#486=SURFACE_STYLE_TRANSPARENT(0.);
#487=SURFACE_SIDE_STYLE('',(#490,#481));
#488=SURFACE_SIDE_STYLE('',(#491,#482));
#489=SURFACE_SIDE_STYLE('',(#492,#483));
#490=SURFACE_STYLE_FILL_AREA(#493);
#491=SURFACE_STYLE_FILL_AREA(#494);
#492=SURFACE_STYLE_FILL_AREA(#495);
#493=FILL_AREA_STYLE('',(#496));
#494=FILL_AREA_STYLE('',(#497));
#495=FILL_AREA_STYLE('',(#498));
#496=FILL_AREA_STYLE_COLOUR('',#499);
#497=FILL_AREA_STYLE_COLOUR('',#500);
#498=FILL_AREA_STYLE_COLOUR('',#501);
#499=COLOUR_RGB('',0.47843137254902,0.47843137254902,0.52156862745098);
#500=COLOUR_RGB('',0.16078431372549,0.16078431372549,0.16078431372549);
#501=COLOUR_RGB('',0.16078431372549,0.16078431372549,0.16078431372549);
ENDSEC;
END-ISO-10303-21;
