ISO-10303-21;
HEADER;
/* Generated by software containing ST-Developer
 * from STEP Tools, Inc. (www.steptools.com) 
 */

FILE_DESCRIPTION(
/* description */ ('Translator using VaultInventorServer'),
/* implementation_level */ '2;1');

FILE_NAME(
/* name */ 
'C:\\DIERRE19\\Designs\\Storico\\ARI METAL\\Inventor libreria\\accesso
ri per guide lineari\\6530_A.stp',
/* time_stamp */ '2025-03-13T14:55:38+01:00',
/* author */ ('PC21'),
/* organization */ (''),
/* preprocessor_version */ 'ST-DEVELOPER v18.1',
/* originating_system */ 'Autodesk Inventor 2022',
/* authorisation */ '');

FILE_SCHEMA (('AUTOMOTIVE_DESIGN { 1 0 10303 214 3 1 1 }'));
ENDSEC;

DATA;
#10=MECHANICAL_DESIGN_GEOMETRIC_PRESENTATION_REPRESENTATION('',(#13),#367);
#11=SHAPE_REPRESENTATION_RELATIONSHIP('SRR','None',#374,#12);
#12=ADVANCED_BREP_SHAPE_REPRESENTATION('',(#14),#366);
#13=STYLED_ITEM('',(#383),#14);
#14=MANIFOLD_SOLID_BREP('Solido1',#188);
#15=LINE('',#327,#20);
#16=LINE('',#339,#21);
#17=LINE('',#352,#22);
#18=LINE('',#358,#23);
#19=LINE('',#363,#24);
#20=VECTOR('',#262,36.);
#21=VECTOR('',#277,36.);
#22=VECTOR('',#294,17.5);
#23=VECTOR('',#303,17.5);
#24=VECTOR('',#310,12.5);
#25=CYLINDRICAL_SURFACE('',#218,36.);
#26=CYLINDRICAL_SURFACE('',#226,36.);
#27=CYLINDRICAL_SURFACE('',#234,17.5);
#28=CYLINDRICAL_SURFACE('',#237,17.5);
#29=CYLINDRICAL_SURFACE('',#241,12.5);
#30=FACE_BOUND('',#52,.T.);
#31=FACE_BOUND('',#57,.T.);
#32=FACE_BOUND('',#59,.T.);
#33=FACE_BOUND('',#64,.T.);
#34=PLANE('',#216);
#35=PLANE('',#229);
#36=PLANE('',#231);
#37=PLANE('',#239);
#38=FACE_OUTER_BOUND('',#50,.T.);
#39=FACE_OUTER_BOUND('',#51,.T.);
#40=FACE_OUTER_BOUND('',#53,.T.);
#41=FACE_OUTER_BOUND('',#54,.T.);
#42=FACE_OUTER_BOUND('',#55,.T.);
#43=FACE_OUTER_BOUND('',#56,.T.);
#44=FACE_OUTER_BOUND('',#58,.T.);
#45=FACE_OUTER_BOUND('',#60,.T.);
#46=FACE_OUTER_BOUND('',#61,.T.);
#47=FACE_OUTER_BOUND('',#62,.T.);
#48=FACE_OUTER_BOUND('',#63,.T.);
#49=FACE_OUTER_BOUND('',#65,.T.);
#50=EDGE_LOOP('',(#125,#126,#127,#128,#129));
#51=EDGE_LOOP('',(#130));
#52=EDGE_LOOP('',(#131));
#53=EDGE_LOOP('',(#132,#133,#134,#135,#136,#137));
#54=EDGE_LOOP('',(#138,#139,#140,#141,#142));
#55=EDGE_LOOP('',(#143,#144,#145,#146,#147,#148));
#56=EDGE_LOOP('',(#149));
#57=EDGE_LOOP('',(#150));
#58=EDGE_LOOP('',(#151));
#59=EDGE_LOOP('',(#152));
#60=EDGE_LOOP('',(#153,#154,#155,#156));
#61=EDGE_LOOP('',(#157,#158,#159,#160,#161,#162));
#62=EDGE_LOOP('',(#163,#164,#165,#166));
#63=EDGE_LOOP('',(#167));
#64=EDGE_LOOP('',(#168));
#65=EDGE_LOOP('',(#169,#170,#171,#172));
#66=CIRCLE('',#212,36.);
#67=CIRCLE('',#213,36.);
#68=CIRCLE('',#214,0.5);
#69=CIRCLE('',#215,35.5);
#70=CIRCLE('',#217,17.5);
#71=CIRCLE('',#219,36.);
#72=CIRCLE('',#220,36.);
#73=CIRCLE('',#222,35.5);
#74=CIRCLE('',#223,0.5);
#75=CIRCLE('',#224,36.);
#76=CIRCLE('',#225,36.);
#77=CIRCLE('',#227,36.);
#78=CIRCLE('',#228,36.);
#79=CIRCLE('',#230,17.5);
#80=CIRCLE('',#232,17.5);
#81=CIRCLE('',#233,12.5);
#82=CIRCLE('',#236,10.);
#83=CIRCLE('',#238,17.5);
#84=CIRCLE('',#240,12.5);
#85=VERTEX_POINT('',#313);
#86=VERTEX_POINT('',#314);
#87=VERTEX_POINT('',#317);
#88=VERTEX_POINT('',#321);
#89=VERTEX_POINT('',#324);
#90=VERTEX_POINT('',#325);
#91=VERTEX_POINT('',#330);
#92=VERTEX_POINT('',#332);
#93=VERTEX_POINT('',#334);
#94=VERTEX_POINT('',#338);
#95=VERTEX_POINT('',#340);
#96=VERTEX_POINT('',#344);
#97=VERTEX_POINT('',#347);
#98=VERTEX_POINT('',#349);
#99=VERTEX_POINT('',#356);
#100=VERTEX_POINT('',#360);
#101=EDGE_CURVE('',#85,#86,#66,.T.);
#102=EDGE_CURVE('',#86,#85,#67,.T.);
#103=EDGE_CURVE('',#85,#87,#68,.T.);
#104=EDGE_CURVE('',#87,#87,#69,.T.);
#105=EDGE_CURVE('',#88,#88,#70,.T.);
#106=EDGE_CURVE('',#89,#90,#71,.T.);
#107=EDGE_CURVE('',#89,#86,#15,.T.);
#108=EDGE_CURVE('',#90,#89,#72,.T.);
#109=EDGE_CURVE('',#91,#91,#73,.T.);
#110=EDGE_CURVE('',#91,#92,#74,.T.);
#111=EDGE_CURVE('',#92,#93,#75,.T.);
#112=EDGE_CURVE('',#93,#92,#76,.T.);
#113=EDGE_CURVE('',#93,#94,#16,.T.);
#114=EDGE_CURVE('',#94,#95,#77,.T.);
#115=EDGE_CURVE('',#95,#94,#78,.T.);
#116=EDGE_CURVE('',#96,#96,#79,.T.);
#117=EDGE_CURVE('',#97,#97,#80,.T.);
#118=EDGE_CURVE('',#98,#98,#81,.T.);
#119=EDGE_CURVE('',#88,#97,#17,.T.);
#120=EDGE_CURVE('',#90,#95,#82,.T.);
#121=EDGE_CURVE('',#99,#99,#83,.T.);
#122=EDGE_CURVE('',#99,#96,#18,.T.);
#123=EDGE_CURVE('',#100,#100,#84,.T.);
#124=EDGE_CURVE('',#100,#98,#19,.T.);
#125=ORIENTED_EDGE('',*,*,#101,.T.);
#126=ORIENTED_EDGE('',*,*,#102,.T.);
#127=ORIENTED_EDGE('',*,*,#103,.T.);
#128=ORIENTED_EDGE('',*,*,#104,.T.);
#129=ORIENTED_EDGE('',*,*,#103,.F.);
#130=ORIENTED_EDGE('',*,*,#104,.F.);
#131=ORIENTED_EDGE('',*,*,#105,.T.);
#132=ORIENTED_EDGE('',*,*,#106,.F.);
#133=ORIENTED_EDGE('',*,*,#107,.T.);
#134=ORIENTED_EDGE('',*,*,#101,.F.);
#135=ORIENTED_EDGE('',*,*,#102,.F.);
#136=ORIENTED_EDGE('',*,*,#107,.F.);
#137=ORIENTED_EDGE('',*,*,#108,.F.);
#138=ORIENTED_EDGE('',*,*,#109,.T.);
#139=ORIENTED_EDGE('',*,*,#110,.T.);
#140=ORIENTED_EDGE('',*,*,#111,.T.);
#141=ORIENTED_EDGE('',*,*,#112,.T.);
#142=ORIENTED_EDGE('',*,*,#110,.F.);
#143=ORIENTED_EDGE('',*,*,#112,.F.);
#144=ORIENTED_EDGE('',*,*,#113,.T.);
#145=ORIENTED_EDGE('',*,*,#114,.T.);
#146=ORIENTED_EDGE('',*,*,#115,.T.);
#147=ORIENTED_EDGE('',*,*,#113,.F.);
#148=ORIENTED_EDGE('',*,*,#111,.F.);
#149=ORIENTED_EDGE('',*,*,#109,.F.);
#150=ORIENTED_EDGE('',*,*,#116,.F.);
#151=ORIENTED_EDGE('',*,*,#117,.F.);
#152=ORIENTED_EDGE('',*,*,#118,.T.);
#153=ORIENTED_EDGE('',*,*,#105,.F.);
#154=ORIENTED_EDGE('',*,*,#119,.T.);
#155=ORIENTED_EDGE('',*,*,#117,.T.);
#156=ORIENTED_EDGE('',*,*,#119,.F.);
#157=ORIENTED_EDGE('',*,*,#106,.T.);
#158=ORIENTED_EDGE('',*,*,#120,.T.);
#159=ORIENTED_EDGE('',*,*,#114,.F.);
#160=ORIENTED_EDGE('',*,*,#115,.F.);
#161=ORIENTED_EDGE('',*,*,#120,.F.);
#162=ORIENTED_EDGE('',*,*,#108,.T.);
#163=ORIENTED_EDGE('',*,*,#121,.F.);
#164=ORIENTED_EDGE('',*,*,#122,.T.);
#165=ORIENTED_EDGE('',*,*,#116,.T.);
#166=ORIENTED_EDGE('',*,*,#122,.F.);
#167=ORIENTED_EDGE('',*,*,#121,.T.);
#168=ORIENTED_EDGE('',*,*,#123,.F.);
#169=ORIENTED_EDGE('',*,*,#123,.T.);
#170=ORIENTED_EDGE('',*,*,#124,.T.);
#171=ORIENTED_EDGE('',*,*,#118,.F.);
#172=ORIENTED_EDGE('',*,*,#124,.F.);
#173=TOROIDAL_SURFACE('',#211,35.5,0.5);
#174=TOROIDAL_SURFACE('',#221,35.5,0.5);
#175=TOROIDAL_SURFACE('',#235,41.,10.);
#176=ADVANCED_FACE('',(#38),#173,.T.);
#177=ADVANCED_FACE('',(#39,#30),#34,.T.);
#178=ADVANCED_FACE('',(#40),#25,.T.);
#179=ADVANCED_FACE('',(#41),#174,.T.);
#180=ADVANCED_FACE('',(#42),#26,.T.);
#181=ADVANCED_FACE('',(#43,#31),#35,.T.);
#182=ADVANCED_FACE('',(#44,#32),#36,.T.);
#183=ADVANCED_FACE('',(#45),#27,.T.);
#184=ADVANCED_FACE('',(#46),#175,.F.);
#185=ADVANCED_FACE('',(#47),#28,.T.);
#186=ADVANCED_FACE('',(#48,#33),#37,.T.);
#187=ADVANCED_FACE('',(#49),#29,.F.);
#188=CLOSED_SHELL('',(#176,#177,#178,#179,#180,#181,#182,#183,#184,#185,
#186,#187));
#189=DERIVED_UNIT_ELEMENT(#192,1.);
#190=DERIVED_UNIT_ELEMENT(#369,-3.);
#191=DIMENSIONAL_EXPONENTS(1.,0.,0.,0.,0.,0.,0.);
#192=(
CONVERSION_BASED_UNIT('gram',#194)
MASS_UNIT()
NAMED_UNIT(#191)
);
#193=(
MASS_UNIT()
NAMED_UNIT(*)
SI_UNIT(.KILO.,.GRAM.)
);
#194=MASS_MEASURE_WITH_UNIT(MASS_MEASURE(0.001),#193);
#195=DERIVED_UNIT((#189,#190));
#196=MEASURE_REPRESENTATION_ITEM('density measure',
POSITIVE_RATIO_MEASURE(7.85),#195);
#197=PROPERTY_DEFINITION_REPRESENTATION(#202,#199);
#198=PROPERTY_DEFINITION_REPRESENTATION(#203,#200);
#199=REPRESENTATION('material name',(#201),#366);
#200=REPRESENTATION('density',(#196),#366);
#201=DESCRIPTIVE_REPRESENTATION_ITEM('Acciaio S235JR','Acciaio S235JR');
#202=PROPERTY_DEFINITION('material property','material name',#376);
#203=PROPERTY_DEFINITION('material property','density of part',#376);
#204=DATE_TIME_ROLE('creation_date');
#205=APPLIED_DATE_AND_TIME_ASSIGNMENT(#206,#204,(#376));
#206=DATE_AND_TIME(#207,#208);
#207=CALENDAR_DATE(2004,28,1);
#208=LOCAL_TIME(0,0,0.,#209);
#209=COORDINATED_UNIVERSAL_TIME_OFFSET(0,0,.BEHIND.);
#210=AXIS2_PLACEMENT_3D('placement',#311,#242,#243);
#211=AXIS2_PLACEMENT_3D('',#312,#244,#245);
#212=AXIS2_PLACEMENT_3D('',#315,#246,#247);
#213=AXIS2_PLACEMENT_3D('',#316,#248,#249);
#214=AXIS2_PLACEMENT_3D('',#318,#250,#251);
#215=AXIS2_PLACEMENT_3D('',#319,#252,#253);
#216=AXIS2_PLACEMENT_3D('',#320,#254,#255);
#217=AXIS2_PLACEMENT_3D('',#322,#256,#257);
#218=AXIS2_PLACEMENT_3D('',#323,#258,#259);
#219=AXIS2_PLACEMENT_3D('',#326,#260,#261);
#220=AXIS2_PLACEMENT_3D('',#328,#263,#264);
#221=AXIS2_PLACEMENT_3D('',#329,#265,#266);
#222=AXIS2_PLACEMENT_3D('',#331,#267,#268);
#223=AXIS2_PLACEMENT_3D('',#333,#269,#270);
#224=AXIS2_PLACEMENT_3D('',#335,#271,#272);
#225=AXIS2_PLACEMENT_3D('',#336,#273,#274);
#226=AXIS2_PLACEMENT_3D('',#337,#275,#276);
#227=AXIS2_PLACEMENT_3D('',#341,#278,#279);
#228=AXIS2_PLACEMENT_3D('',#342,#280,#281);
#229=AXIS2_PLACEMENT_3D('',#343,#282,#283);
#230=AXIS2_PLACEMENT_3D('',#345,#284,#285);
#231=AXIS2_PLACEMENT_3D('',#346,#286,#287);
#232=AXIS2_PLACEMENT_3D('',#348,#288,#289);
#233=AXIS2_PLACEMENT_3D('',#350,#290,#291);
#234=AXIS2_PLACEMENT_3D('',#351,#292,#293);
#235=AXIS2_PLACEMENT_3D('',#353,#295,#296);
#236=AXIS2_PLACEMENT_3D('',#354,#297,#298);
#237=AXIS2_PLACEMENT_3D('',#355,#299,#300);
#238=AXIS2_PLACEMENT_3D('',#357,#301,#302);
#239=AXIS2_PLACEMENT_3D('',#359,#304,#305);
#240=AXIS2_PLACEMENT_3D('',#361,#306,#307);
#241=AXIS2_PLACEMENT_3D('',#362,#308,#309);
#242=DIRECTION('axis',(0.,0.,1.));
#243=DIRECTION('refdir',(1.,0.,0.));
#244=DIRECTION('center_axis',(1.,0.,0.));
#245=DIRECTION('ref_axis',(0.,0.,-1.));
#246=DIRECTION('center_axis',(-1.,0.,0.));
#247=DIRECTION('ref_axis',(0.,-1.,1.22460635382238E-16));
#248=DIRECTION('center_axis',(-1.,0.,0.));
#249=DIRECTION('ref_axis',(0.,-1.,1.22460635382238E-16));
#250=DIRECTION('center_axis',(0.,-1.,-1.2335811384724E-16));
#251=DIRECTION('ref_axis',(0.,-1.2335811384724E-16,1.));
#252=DIRECTION('center_axis',(1.,0.,0.));
#253=DIRECTION('ref_axis',(0.,-1.,1.22460635382238E-16));
#254=DIRECTION('center_axis',(-1.,0.,0.));
#255=DIRECTION('ref_axis',(0.,0.,1.));
#256=DIRECTION('center_axis',(1.,0.,0.));
#257=DIRECTION('ref_axis',(3.5527136788005E-16,1.,0.));
#258=DIRECTION('center_axis',(1.,0.,0.));
#259=DIRECTION('ref_axis',(3.5527136788005E-16,1.,0.));
#260=DIRECTION('center_axis',(1.,0.,0.));
#261=DIRECTION('ref_axis',(3.5527136788005E-16,1.,0.));
#262=DIRECTION('',(-1.,0.,0.));
#263=DIRECTION('center_axis',(1.,0.,0.));
#264=DIRECTION('ref_axis',(3.5527136788005E-16,1.,0.));
#265=DIRECTION('center_axis',(1.,0.,0.));
#266=DIRECTION('ref_axis',(0.,0.,-1.));
#267=DIRECTION('center_axis',(-1.,0.,0.));
#268=DIRECTION('ref_axis',(0.,-1.,1.22460635382238E-16));
#269=DIRECTION('center_axis',(0.,-1.,-1.2335811384724E-16));
#270=DIRECTION('ref_axis',(0.,-1.2335811384724E-16,1.));
#271=DIRECTION('center_axis',(1.,0.,0.));
#272=DIRECTION('ref_axis',(0.,-1.,1.22460635382238E-16));
#273=DIRECTION('center_axis',(1.,0.,0.));
#274=DIRECTION('ref_axis',(0.,-1.,1.22460635382238E-16));
#275=DIRECTION('center_axis',(1.,0.,0.));
#276=DIRECTION('ref_axis',(3.5527136788005E-16,1.,0.));
#277=DIRECTION('',(-1.,0.,0.));
#278=DIRECTION('center_axis',(1.,0.,0.));
#279=DIRECTION('ref_axis',(3.5527136788005E-16,1.,0.));
#280=DIRECTION('center_axis',(1.,0.,0.));
#281=DIRECTION('ref_axis',(3.5527136788005E-16,1.,0.));
#282=DIRECTION('center_axis',(1.,0.,0.));
#283=DIRECTION('ref_axis',(0.,0.,-1.));
#284=DIRECTION('center_axis',(1.,0.,0.));
#285=DIRECTION('ref_axis',(3.5527136788005E-16,1.,0.));
#286=DIRECTION('center_axis',(-1.,0.,0.));
#287=DIRECTION('ref_axis',(0.,0.,1.));
#288=DIRECTION('center_axis',(1.,0.,0.));
#289=DIRECTION('ref_axis',(3.5527136788005E-16,1.,0.));
#290=DIRECTION('center_axis',(1.,0.,0.));
#291=DIRECTION('ref_axis',(3.5527136788005E-16,1.,0.));
#292=DIRECTION('center_axis',(1.,0.,0.));
#293=DIRECTION('ref_axis',(3.5527136788005E-16,1.,0.));
#294=DIRECTION('',(-1.,0.,0.));
#295=DIRECTION('center_axis',(1.,0.,0.));
#296=DIRECTION('ref_axis',(0.,0.,-1.));
#297=DIRECTION('center_axis',(0.,-1.,-8.7076315656875E-17));
#298=DIRECTION('ref_axis',(0.,-8.7076315656875E-17,1.));
#299=DIRECTION('center_axis',(1.,0.,0.));
#300=DIRECTION('ref_axis',(3.5527136788005E-16,1.,0.));
#301=DIRECTION('center_axis',(1.,0.,0.));
#302=DIRECTION('ref_axis',(3.5527136788005E-16,1.,0.));
#303=DIRECTION('',(-1.,0.,0.));
#304=DIRECTION('center_axis',(1.,0.,0.));
#305=DIRECTION('ref_axis',(0.,0.,-1.));
#306=DIRECTION('center_axis',(1.,0.,0.));
#307=DIRECTION('ref_axis',(3.5527136788005E-16,1.,0.));
#308=DIRECTION('center_axis',(1.,0.,0.));
#309=DIRECTION('ref_axis',(3.5527136788005E-16,1.,0.));
#310=DIRECTION('',(-1.,0.,0.));
#311=CARTESIAN_POINT('',(0.,0.,0.));
#312=CARTESIAN_POINT('Origin',(-62.6296273616512,22.0428369340739,0.));
#313=CARTESIAN_POINT('',(-62.6296273616512,22.0428369340739,36.));
#314=CARTESIAN_POINT('',(-62.6296273616512,-13.9571630659261,-4.40872847693047E-15));
#315=CARTESIAN_POINT('Origin',(-62.6296273616512,22.0428369340739,0.));
#316=CARTESIAN_POINT('Origin',(-62.6296273616512,22.0428369340739,0.));
#317=CARTESIAN_POINT('',(-63.1296273616512,22.0428369340739,35.5));
#318=CARTESIAN_POINT('Origin',(-62.6296273616512,22.0428369340739,35.5));
#319=CARTESIAN_POINT('Origin',(-63.1296273616512,22.0428369340739,0.));
#320=CARTESIAN_POINT('Origin',(-63.1296273616512,48.7928369340739,0.));
#321=CARTESIAN_POINT('',(-63.1296273616512,4.54283693407392,-2.14313189850787E-15));
#322=CARTESIAN_POINT('Origin',(-63.1296273616512,22.0428369340739,0.));
#323=CARTESIAN_POINT('Origin',(-61.5097543805734,22.0428369340739,0.));
#324=CARTESIAN_POINT('',(-59.8898813994956,-13.9571630659261,-4.40872847693047E-15));
#325=CARTESIAN_POINT('',(-59.8898813994956,22.0428369340739,36.));
#326=CARTESIAN_POINT('Origin',(-59.8898813994956,22.0428369340739,0.));
#327=CARTESIAN_POINT('',(-61.5097543805734,-13.9571630659261,-4.40872847693047E-15));
#328=CARTESIAN_POINT('Origin',(-59.8898813994956,22.0428369340739,0.));
#329=CARTESIAN_POINT('Origin',(-39.8296273616512,22.0428369340739,0.));
#330=CARTESIAN_POINT('',(-39.3296273616512,22.0428369340739,35.5));
#331=CARTESIAN_POINT('Origin',(-39.3296273616512,22.0428369340739,0.));
#332=CARTESIAN_POINT('',(-39.8296273616512,22.0428369340739,36.));
#333=CARTESIAN_POINT('Origin',(-39.8296273616512,22.0428369340739,35.5));
#334=CARTESIAN_POINT('',(-39.8296273616512,-13.9571630659261,-4.40872847693047E-15));
#335=CARTESIAN_POINT('Origin',(-39.8296273616512,22.0428369340739,0.));
#336=CARTESIAN_POINT('Origin',(-39.8296273616512,22.0428369340739,0.));
#337=CARTESIAN_POINT('Origin',(-40.949500342729,22.0428369340739,0.));
#338=CARTESIAN_POINT('',(-42.5693733238068,-13.9571630659261,-4.40872847693047E-15));
#339=CARTESIAN_POINT('',(-40.949500342729,-13.9571630659261,-4.40872847693047E-15));
#340=CARTESIAN_POINT('',(-42.5693733238068,22.0428369340739,36.));
#341=CARTESIAN_POINT('Origin',(-42.5693733238068,22.0428369340739,0.));
#342=CARTESIAN_POINT('Origin',(-42.5693733238068,22.0428369340739,0.));
#343=CARTESIAN_POINT('Origin',(-39.3296273616512,48.7928369340739,0.));
#344=CARTESIAN_POINT('',(-39.3296273616512,4.54283693407392,-2.14313189850787E-15));
#345=CARTESIAN_POINT('Origin',(-39.3296273616512,22.0428369340739,0.));
#346=CARTESIAN_POINT('Origin',(-64.1296273616512,37.0428369340739,0.));
#347=CARTESIAN_POINT('',(-64.1296273616512,4.54283693407392,-2.14313189850787E-15));
#348=CARTESIAN_POINT('Origin',(-64.1296273616512,22.0428369340739,0.));
#349=CARTESIAN_POINT('',(-64.1296273616512,9.54283693407392,-1.53080849893419E-15));
#350=CARTESIAN_POINT('Origin',(-64.1296273616512,22.0428369340739,0.));
#351=CARTESIAN_POINT('Origin',(-63.6296273616512,22.0428369340739,0.));
#352=CARTESIAN_POINT('',(-63.6296273616512,4.54283693407392,-2.14313189850787E-15));
#353=CARTESIAN_POINT('Origin',(-51.2296273616512,22.0428369340739,0.));
#354=CARTESIAN_POINT('Origin',(-51.2296273616512,22.0428369340739,41.));
#355=CARTESIAN_POINT('Origin',(-38.8296273616512,22.0428369340739,0.));
#356=CARTESIAN_POINT('',(-38.3296273616512,4.54283693407392,-2.14313189850787E-15));
#357=CARTESIAN_POINT('Origin',(-38.3296273616512,22.0428369340739,0.));
#358=CARTESIAN_POINT('',(-38.8296273616512,4.54283693407392,-2.14313189850787E-15));
#359=CARTESIAN_POINT('Origin',(-38.3296273616512,37.0428369340739,0.));
#360=CARTESIAN_POINT('',(-38.3296273616512,9.54283693407392,-1.53080849893419E-15));
#361=CARTESIAN_POINT('Origin',(-38.3296273616512,22.0428369340739,0.));
#362=CARTESIAN_POINT('Origin',(-51.2296273616512,22.0428369340739,0.));
#363=CARTESIAN_POINT('',(-51.2296273616512,9.54283693407392,-1.53080849893419E-15));
#364=UNCERTAINTY_MEASURE_WITH_UNIT(LENGTH_MEASURE(0.01),#368,
'DISTANCE_ACCURACY_VALUE',
'Maximum model space distance between geometric entities at asserted c
onnectivities');
#365=UNCERTAINTY_MEASURE_WITH_UNIT(LENGTH_MEASURE(0.01),#368,
'DISTANCE_ACCURACY_VALUE',
'Maximum model space distance between geometric entities at asserted c
onnectivities');
#366=(
GEOMETRIC_REPRESENTATION_CONTEXT(3)
GLOBAL_UNCERTAINTY_ASSIGNED_CONTEXT((#364))
GLOBAL_UNIT_ASSIGNED_CONTEXT((#368,#370,#371))
REPRESENTATION_CONTEXT('','3D')
);
#367=(
GEOMETRIC_REPRESENTATION_CONTEXT(3)
GLOBAL_UNCERTAINTY_ASSIGNED_CONTEXT((#365))
GLOBAL_UNIT_ASSIGNED_CONTEXT((#368,#370,#371))
REPRESENTATION_CONTEXT('','3D')
);
#368=(
LENGTH_UNIT()
NAMED_UNIT(*)
SI_UNIT(.MILLI.,.METRE.)
);
#369=(
LENGTH_UNIT()
NAMED_UNIT(*)
SI_UNIT(.CENTI.,.METRE.)
);
#370=(
NAMED_UNIT(*)
PLANE_ANGLE_UNIT()
SI_UNIT($,.RADIAN.)
);
#371=(
NAMED_UNIT(*)
SI_UNIT($,.STERADIAN.)
SOLID_ANGLE_UNIT()
);
#372=SHAPE_DEFINITION_REPRESENTATION(#373,#374);
#373=PRODUCT_DEFINITION_SHAPE('',$,#376);
#374=SHAPE_REPRESENTATION('',(#210),#366);
#375=PRODUCT_DEFINITION_CONTEXT('part definition',#380,'design');
#376=PRODUCT_DEFINITION('6530','6530',#377,#375);
#377=PRODUCT_DEFINITION_FORMATION('A',$,#382);
#378=PRODUCT_RELATED_PRODUCT_CATEGORY('6530','6530',(#382));
#379=APPLICATION_PROTOCOL_DEFINITION('international standard',
'automotive_design',2009,#380);
#380=APPLICATION_CONTEXT(
'Core Data for Automotive Mechanical Design Process');
#381=PRODUCT_CONTEXT('part definition',#380,'mechanical');
#382=PRODUCT('6530','6530','ROTELLA DI=25 DE=72 SP=25,8 DT=20',(#381));
#383=PRESENTATION_STYLE_ASSIGNMENT((#384));
#384=SURFACE_STYLE_USAGE(.BOTH.,#387);
#385=SURFACE_STYLE_RENDERING_WITH_PROPERTIES($,#391,(#386));
#386=SURFACE_STYLE_TRANSPARENT(0.);
#387=SURFACE_SIDE_STYLE('',(#388,#385));
#388=SURFACE_STYLE_FILL_AREA(#389);
#389=FILL_AREA_STYLE('',(#390));
#390=FILL_AREA_STYLE_COLOUR('',#391);
#391=COLOUR_RGB('',1.,1.,1.);
ENDSEC;
END-ISO-10303-21;
