ISO-10303-21;
HEADER;
/* Generated by software containing ST-Developer
 * from STEP Tools, Inc. (www.steptools.com) 
 */

FILE_DESCRIPTION(
/* description */ ('Translator using VaultInventorServer'),
/* implementation_level */ '2;1');

FILE_NAME(
/* name */ 
'C:\\DIERRE19\\Designs\\Storico\\FIORANO\\AUTOMAZIONE\\80\\RT\\80RT000
03-A_A.stp',
/* time_stamp */ '2025-03-13T14:52:01+01:00',
/* author */ ('srubbiani'),
/* organization */ (''),
/* preprocessor_version */ 'ST-DEVELOPER v18.1',
/* originating_system */ 'Autodesk Inventor 2022',
/* authorisation */ '');

FILE_SCHEMA (('AUTOMOTIVE_DESIGN { 1 0 10303 214 3 1 1 }'));
ENDSEC;

DATA;
#10=MECHANICAL_DESIGN_GEOMETRIC_PRESENTATION_REPRESENTATION('',(#13,#14,
#15),#571);
#11=SHAPE_REPRESENTATION_RELATIONSHIP('SRR','None',#578,#12);
#12=ADVANCED_BREP_SHAPE_REPRESENTATION('',(#16,#17,#18),#570);
#13=STYLED_ITEM('',(#587),#16);
#14=STYLED_ITEM('',(#587),#17);
#15=STYLED_ITEM('',(#587),#18);
#16=MANIFOLD_SOLID_BREP('None',#306);
#17=MANIFOLD_SOLID_BREP('None_1',#307);
#18=MANIFOLD_SOLID_BREP('None_2',#308);
#19=TOROIDAL_SURFACE('',#350,21.75,6.);
#20=FACE_BOUND('',#66,.T.);
#21=FACE_BOUND('',#68,.T.);
#22=FACE_BOUND('',#70,.T.);
#23=FACE_BOUND('',#72,.T.);
#24=FACE_BOUND('',#77,.T.);
#25=FACE_BOUND('',#81,.T.);
#26=FACE_BOUND('',#85,.T.);
#27=FACE_BOUND('',#87,.T.);
#28=FACE_BOUND('',#91,.T.);
#29=FACE_BOUND('',#93,.T.);
#30=PLANE('',#342);
#31=PLANE('',#344);
#32=PLANE('',#346);
#33=PLANE('',#348);
#34=PLANE('',#356);
#35=PLANE('',#361);
#36=PLANE('',#368);
#37=PLANE('',#369);
#38=PLANE('',#376);
#39=PLANE('',#377);
#40=FACE_OUTER_BOUND('',#62,.T.);
#41=FACE_OUTER_BOUND('',#63,.T.);
#42=FACE_OUTER_BOUND('',#64,.T.);
#43=FACE_OUTER_BOUND('',#65,.T.);
#44=FACE_OUTER_BOUND('',#67,.T.);
#45=FACE_OUTER_BOUND('',#69,.T.);
#46=FACE_OUTER_BOUND('',#71,.T.);
#47=FACE_OUTER_BOUND('',#73,.T.);
#48=FACE_OUTER_BOUND('',#74,.T.);
#49=FACE_OUTER_BOUND('',#75,.T.);
#50=FACE_OUTER_BOUND('',#76,.T.);
#51=FACE_OUTER_BOUND('',#78,.T.);
#52=FACE_OUTER_BOUND('',#79,.T.);
#53=FACE_OUTER_BOUND('',#80,.T.);
#54=FACE_OUTER_BOUND('',#82,.T.);
#55=FACE_OUTER_BOUND('',#83,.T.);
#56=FACE_OUTER_BOUND('',#84,.T.);
#57=FACE_OUTER_BOUND('',#86,.T.);
#58=FACE_OUTER_BOUND('',#88,.T.);
#59=FACE_OUTER_BOUND('',#89,.T.);
#60=FACE_OUTER_BOUND('',#90,.T.);
#61=FACE_OUTER_BOUND('',#92,.T.);
#62=EDGE_LOOP('',(#201,#202,#203,#204,#205));
#63=EDGE_LOOP('',(#206,#207,#208,#209,#210));
#64=EDGE_LOOP('',(#211,#212,#213,#214));
#65=EDGE_LOOP('',(#215));
#66=EDGE_LOOP('',(#216));
#67=EDGE_LOOP('',(#217));
#68=EDGE_LOOP('',(#218));
#69=EDGE_LOOP('',(#219));
#70=EDGE_LOOP('',(#220));
#71=EDGE_LOOP('',(#221));
#72=EDGE_LOOP('',(#222));
#73=EDGE_LOOP('',(#223,#224,#225,#226,#227,#228));
#74=EDGE_LOOP('',(#229,#230,#231,#232));
#75=EDGE_LOOP('',(#233,#234,#235,#236));
#76=EDGE_LOOP('',(#237));
#77=EDGE_LOOP('',(#238));
#78=EDGE_LOOP('',(#239,#240,#241,#242));
#79=EDGE_LOOP('',(#243,#244,#245,#246));
#80=EDGE_LOOP('',(#247));
#81=EDGE_LOOP('',(#248));
#82=EDGE_LOOP('',(#249,#250,#251,#252));
#83=EDGE_LOOP('',(#253,#254,#255,#256));
#84=EDGE_LOOP('',(#257));
#85=EDGE_LOOP('',(#258));
#86=EDGE_LOOP('',(#259));
#87=EDGE_LOOP('',(#260));
#88=EDGE_LOOP('',(#261,#262,#263,#264));
#89=EDGE_LOOP('',(#265,#266,#267,#268));
#90=EDGE_LOOP('',(#269));
#91=EDGE_LOOP('',(#270));
#92=EDGE_LOOP('',(#271));
#93=EDGE_LOOP('',(#272));
#94=LINE('',#491,#105);
#95=LINE('',#498,#106);
#96=LINE('',#506,#107);
#97=LINE('',#525,#108);
#98=LINE('',#529,#109);
#99=LINE('',#534,#110);
#100=LINE('',#538,#111);
#101=LINE('',#544,#112);
#102=LINE('',#550,#113);
#103=LINE('',#558,#114);
#104=LINE('',#564,#115);
#105=VECTOR('',#384,17.5);
#106=VECTOR('',#393,17.5);
#107=VECTOR('',#402,6.);
#108=VECTOR('',#429,14.);
#109=VECTOR('',#434,9.);
#110=VECTOR('',#441,14.);
#111=VECTOR('',#446,9.);
#112=VECTOR('',#453,14.);
#113=VECTOR('',#460,9.);
#114=VECTOR('',#471,14.);
#115=VECTOR('',#478,9.);
#116=CIRCLE('',#332,17.5);
#117=CIRCLE('',#333,17.5);
#118=CIRCLE('',#334,17.5);
#119=CIRCLE('',#336,17.5);
#120=CIRCLE('',#337,17.5);
#121=CIRCLE('',#338,17.5);
#122=CIRCLE('',#340,6.);
#123=CIRCLE('',#341,6.);
#124=CIRCLE('',#343,14.);
#125=CIRCLE('',#345,9.);
#126=CIRCLE('',#347,14.);
#127=CIRCLE('',#349,9.);
#128=CIRCLE('',#351,6.);
#129=CIRCLE('',#353,14.);
#130=CIRCLE('',#355,9.);
#131=CIRCLE('',#358,14.);
#132=CIRCLE('',#360,9.);
#133=CIRCLE('',#363,14.);
#134=CIRCLE('',#364,14.);
#135=CIRCLE('',#366,9.);
#136=CIRCLE('',#367,9.);
#137=CIRCLE('',#371,14.);
#138=CIRCLE('',#372,14.);
#139=CIRCLE('',#374,9.);
#140=CIRCLE('',#375,9.);
#141=VERTEX_POINT('',#487);
#142=VERTEX_POINT('',#488);
#143=VERTEX_POINT('',#490);
#144=VERTEX_POINT('',#495);
#145=VERTEX_POINT('',#497);
#146=VERTEX_POINT('',#499);
#147=VERTEX_POINT('',#503);
#148=VERTEX_POINT('',#505);
#149=VERTEX_POINT('',#509);
#150=VERTEX_POINT('',#512);
#151=VERTEX_POINT('',#515);
#152=VERTEX_POINT('',#518);
#153=VERTEX_POINT('',#523);
#154=VERTEX_POINT('',#527);
#155=VERTEX_POINT('',#532);
#156=VERTEX_POINT('',#536);
#157=VERTEX_POINT('',#541);
#158=VERTEX_POINT('',#543);
#159=VERTEX_POINT('',#547);
#160=VERTEX_POINT('',#549);
#161=VERTEX_POINT('',#555);
#162=VERTEX_POINT('',#557);
#163=VERTEX_POINT('',#561);
#164=VERTEX_POINT('',#563);
#165=EDGE_CURVE('',#141,#142,#116,.T.);
#166=EDGE_CURVE('',#141,#143,#94,.T.);
#167=EDGE_CURVE('',#143,#143,#117,.T.);
#168=EDGE_CURVE('',#142,#141,#118,.T.);
#169=EDGE_CURVE('',#144,#144,#119,.T.);
#170=EDGE_CURVE('',#144,#145,#95,.T.);
#171=EDGE_CURVE('',#146,#145,#120,.T.);
#172=EDGE_CURVE('',#145,#146,#121,.T.);
#173=EDGE_CURVE('',#147,#147,#122,.T.);
#174=EDGE_CURVE('',#147,#148,#96,.T.);
#175=EDGE_CURVE('',#148,#148,#123,.T.);
#176=EDGE_CURVE('',#149,#149,#124,.T.);
#177=EDGE_CURVE('',#150,#150,#125,.T.);
#178=EDGE_CURVE('',#151,#151,#126,.T.);
#179=EDGE_CURVE('',#152,#152,#127,.T.);
#180=EDGE_CURVE('',#142,#146,#128,.T.);
#181=EDGE_CURVE('',#153,#153,#129,.T.);
#182=EDGE_CURVE('',#153,#151,#97,.T.);
#183=EDGE_CURVE('',#154,#154,#130,.T.);
#184=EDGE_CURVE('',#154,#152,#98,.T.);
#185=EDGE_CURVE('',#155,#155,#131,.T.);
#186=EDGE_CURVE('',#155,#149,#99,.T.);
#187=EDGE_CURVE('',#156,#156,#132,.T.);
#188=EDGE_CURVE('',#156,#150,#100,.T.);
#189=EDGE_CURVE('',#157,#157,#133,.T.);
#190=EDGE_CURVE('',#157,#158,#101,.T.);
#191=EDGE_CURVE('',#158,#158,#134,.T.);
#192=EDGE_CURVE('',#159,#159,#135,.T.);
#193=EDGE_CURVE('',#159,#160,#102,.T.);
#194=EDGE_CURVE('',#160,#160,#136,.T.);
#195=EDGE_CURVE('',#161,#161,#137,.T.);
#196=EDGE_CURVE('',#161,#162,#103,.T.);
#197=EDGE_CURVE('',#162,#162,#138,.T.);
#198=EDGE_CURVE('',#163,#163,#139,.T.);
#199=EDGE_CURVE('',#163,#164,#104,.T.);
#200=EDGE_CURVE('',#164,#164,#140,.T.);
#201=ORIENTED_EDGE('',*,*,#165,.F.);
#202=ORIENTED_EDGE('',*,*,#166,.T.);
#203=ORIENTED_EDGE('',*,*,#167,.T.);
#204=ORIENTED_EDGE('',*,*,#166,.F.);
#205=ORIENTED_EDGE('',*,*,#168,.F.);
#206=ORIENTED_EDGE('',*,*,#169,.F.);
#207=ORIENTED_EDGE('',*,*,#170,.T.);
#208=ORIENTED_EDGE('',*,*,#171,.F.);
#209=ORIENTED_EDGE('',*,*,#172,.F.);
#210=ORIENTED_EDGE('',*,*,#170,.F.);
#211=ORIENTED_EDGE('',*,*,#173,.F.);
#212=ORIENTED_EDGE('',*,*,#174,.T.);
#213=ORIENTED_EDGE('',*,*,#175,.T.);
#214=ORIENTED_EDGE('',*,*,#174,.F.);
#215=ORIENTED_EDGE('',*,*,#167,.F.);
#216=ORIENTED_EDGE('',*,*,#176,.F.);
#217=ORIENTED_EDGE('',*,*,#177,.F.);
#218=ORIENTED_EDGE('',*,*,#175,.F.);
#219=ORIENTED_EDGE('',*,*,#169,.T.);
#220=ORIENTED_EDGE('',*,*,#178,.F.);
#221=ORIENTED_EDGE('',*,*,#179,.F.);
#222=ORIENTED_EDGE('',*,*,#173,.T.);
#223=ORIENTED_EDGE('',*,*,#165,.T.);
#224=ORIENTED_EDGE('',*,*,#180,.T.);
#225=ORIENTED_EDGE('',*,*,#171,.T.);
#226=ORIENTED_EDGE('',*,*,#172,.T.);
#227=ORIENTED_EDGE('',*,*,#180,.F.);
#228=ORIENTED_EDGE('',*,*,#168,.T.);
#229=ORIENTED_EDGE('',*,*,#181,.F.);
#230=ORIENTED_EDGE('',*,*,#182,.T.);
#231=ORIENTED_EDGE('',*,*,#178,.T.);
#232=ORIENTED_EDGE('',*,*,#182,.F.);
#233=ORIENTED_EDGE('',*,*,#183,.F.);
#234=ORIENTED_EDGE('',*,*,#184,.T.);
#235=ORIENTED_EDGE('',*,*,#179,.T.);
#236=ORIENTED_EDGE('',*,*,#184,.F.);
#237=ORIENTED_EDGE('',*,*,#181,.T.);
#238=ORIENTED_EDGE('',*,*,#183,.T.);
#239=ORIENTED_EDGE('',*,*,#185,.F.);
#240=ORIENTED_EDGE('',*,*,#186,.T.);
#241=ORIENTED_EDGE('',*,*,#176,.T.);
#242=ORIENTED_EDGE('',*,*,#186,.F.);
#243=ORIENTED_EDGE('',*,*,#187,.F.);
#244=ORIENTED_EDGE('',*,*,#188,.T.);
#245=ORIENTED_EDGE('',*,*,#177,.T.);
#246=ORIENTED_EDGE('',*,*,#188,.F.);
#247=ORIENTED_EDGE('',*,*,#185,.T.);
#248=ORIENTED_EDGE('',*,*,#187,.T.);
#249=ORIENTED_EDGE('',*,*,#189,.F.);
#250=ORIENTED_EDGE('',*,*,#190,.T.);
#251=ORIENTED_EDGE('',*,*,#191,.T.);
#252=ORIENTED_EDGE('',*,*,#190,.F.);
#253=ORIENTED_EDGE('',*,*,#192,.F.);
#254=ORIENTED_EDGE('',*,*,#193,.T.);
#255=ORIENTED_EDGE('',*,*,#194,.T.);
#256=ORIENTED_EDGE('',*,*,#193,.F.);
#257=ORIENTED_EDGE('',*,*,#191,.F.);
#258=ORIENTED_EDGE('',*,*,#194,.F.);
#259=ORIENTED_EDGE('',*,*,#189,.T.);
#260=ORIENTED_EDGE('',*,*,#192,.T.);
#261=ORIENTED_EDGE('',*,*,#195,.F.);
#262=ORIENTED_EDGE('',*,*,#196,.T.);
#263=ORIENTED_EDGE('',*,*,#197,.T.);
#264=ORIENTED_EDGE('',*,*,#196,.F.);
#265=ORIENTED_EDGE('',*,*,#198,.F.);
#266=ORIENTED_EDGE('',*,*,#199,.T.);
#267=ORIENTED_EDGE('',*,*,#200,.T.);
#268=ORIENTED_EDGE('',*,*,#199,.F.);
#269=ORIENTED_EDGE('',*,*,#197,.F.);
#270=ORIENTED_EDGE('',*,*,#200,.F.);
#271=ORIENTED_EDGE('',*,*,#195,.T.);
#272=ORIENTED_EDGE('',*,*,#198,.T.);
#273=CYLINDRICAL_SURFACE('',#331,17.5);
#274=CYLINDRICAL_SURFACE('',#335,17.5);
#275=CYLINDRICAL_SURFACE('',#339,6.);
#276=CYLINDRICAL_SURFACE('',#352,14.);
#277=CYLINDRICAL_SURFACE('',#354,9.);
#278=CYLINDRICAL_SURFACE('',#357,14.);
#279=CYLINDRICAL_SURFACE('',#359,9.);
#280=CYLINDRICAL_SURFACE('',#362,14.);
#281=CYLINDRICAL_SURFACE('',#365,9.);
#282=CYLINDRICAL_SURFACE('',#370,14.);
#283=CYLINDRICAL_SURFACE('',#373,9.);
#284=ADVANCED_FACE('',(#40),#273,.T.);
#285=ADVANCED_FACE('',(#41),#274,.T.);
#286=ADVANCED_FACE('',(#42),#275,.F.);
#287=ADVANCED_FACE('',(#43,#20),#30,.F.);
#288=ADVANCED_FACE('',(#44,#21),#31,.F.);
#289=ADVANCED_FACE('',(#45,#22),#32,.T.);
#290=ADVANCED_FACE('',(#46,#23),#33,.T.);
#291=ADVANCED_FACE('',(#47),#19,.F.);
#292=ADVANCED_FACE('',(#48),#276,.F.);
#293=ADVANCED_FACE('',(#49),#277,.T.);
#294=ADVANCED_FACE('',(#50,#24),#34,.T.);
#295=ADVANCED_FACE('',(#51),#278,.F.);
#296=ADVANCED_FACE('',(#52),#279,.T.);
#297=ADVANCED_FACE('',(#53,#25),#35,.T.);
#298=ADVANCED_FACE('',(#54),#280,.T.);
#299=ADVANCED_FACE('',(#55),#281,.F.);
#300=ADVANCED_FACE('',(#56,#26),#36,.F.);
#301=ADVANCED_FACE('',(#57,#27),#37,.T.);
#302=ADVANCED_FACE('',(#58),#282,.T.);
#303=ADVANCED_FACE('',(#59),#283,.F.);
#304=ADVANCED_FACE('',(#60,#28),#38,.F.);
#305=ADVANCED_FACE('',(#61,#29),#39,.T.);
#306=CLOSED_SHELL('',(#284,#285,#286,#287,#288,#289,#290,#291,#292,#293,
#294,#295,#296,#297));
#307=CLOSED_SHELL('',(#298,#299,#300,#301));
#308=CLOSED_SHELL('',(#302,#303,#304,#305));
#309=DERIVED_UNIT_ELEMENT(#312,1.);
#310=DERIVED_UNIT_ELEMENT(#573,-3.);
#311=DIMENSIONAL_EXPONENTS(1.,0.,0.,0.,0.,0.,0.);
#312=(
CONVERSION_BASED_UNIT('gram',#314)
MASS_UNIT()
NAMED_UNIT(#311)
);
#313=(
MASS_UNIT()
NAMED_UNIT(*)
SI_UNIT(.KILO.,.GRAM.)
);
#314=MASS_MEASURE_WITH_UNIT(MASS_MEASURE(0.001),#313);
#315=DERIVED_UNIT((#309,#310));
#316=MEASURE_REPRESENTATION_ITEM('density measure',
POSITIVE_RATIO_MEASURE(6.E-5),#315);
#317=PROPERTY_DEFINITION_REPRESENTATION(#322,#319);
#318=PROPERTY_DEFINITION_REPRESENTATION(#323,#320);
#319=REPRESENTATION('material name',(#321),#570);
#320=REPRESENTATION('density',(#316),#570);
#321=DESCRIPTIVE_REPRESENTATION_ITEM('Steel','Steel');
#322=PROPERTY_DEFINITION('material property','material name',#580);
#323=PROPERTY_DEFINITION('material property','density of part',#580);
#324=DATE_TIME_ROLE('creation_date');
#325=APPLIED_DATE_AND_TIME_ASSIGNMENT(#326,#324,(#580));
#326=DATE_AND_TIME(#327,#328);
#327=CALENDAR_DATE(2012,19,3);
#328=LOCAL_TIME(0,0,0.,#329);
#329=COORDINATED_UNIVERSAL_TIME_OFFSET(0,0,.BEHIND.);
#330=AXIS2_PLACEMENT_3D('placement',#485,#378,#379);
#331=AXIS2_PLACEMENT_3D('',#486,#380,#381);
#332=AXIS2_PLACEMENT_3D('',#489,#382,#383);
#333=AXIS2_PLACEMENT_3D('',#492,#385,#386);
#334=AXIS2_PLACEMENT_3D('',#493,#387,#388);
#335=AXIS2_PLACEMENT_3D('',#494,#389,#390);
#336=AXIS2_PLACEMENT_3D('',#496,#391,#392);
#337=AXIS2_PLACEMENT_3D('',#500,#394,#395);
#338=AXIS2_PLACEMENT_3D('',#501,#396,#397);
#339=AXIS2_PLACEMENT_3D('',#502,#398,#399);
#340=AXIS2_PLACEMENT_3D('',#504,#400,#401);
#341=AXIS2_PLACEMENT_3D('',#507,#403,#404);
#342=AXIS2_PLACEMENT_3D('',#508,#405,#406);
#343=AXIS2_PLACEMENT_3D('',#510,#407,#408);
#344=AXIS2_PLACEMENT_3D('',#511,#409,#410);
#345=AXIS2_PLACEMENT_3D('',#513,#411,#412);
#346=AXIS2_PLACEMENT_3D('',#514,#413,#414);
#347=AXIS2_PLACEMENT_3D('',#516,#415,#416);
#348=AXIS2_PLACEMENT_3D('',#517,#417,#418);
#349=AXIS2_PLACEMENT_3D('',#519,#419,#420);
#350=AXIS2_PLACEMENT_3D('',#520,#421,#422);
#351=AXIS2_PLACEMENT_3D('',#521,#423,#424);
#352=AXIS2_PLACEMENT_3D('',#522,#425,#426);
#353=AXIS2_PLACEMENT_3D('',#524,#427,#428);
#354=AXIS2_PLACEMENT_3D('',#526,#430,#431);
#355=AXIS2_PLACEMENT_3D('',#528,#432,#433);
#356=AXIS2_PLACEMENT_3D('',#530,#435,#436);
#357=AXIS2_PLACEMENT_3D('',#531,#437,#438);
#358=AXIS2_PLACEMENT_3D('',#533,#439,#440);
#359=AXIS2_PLACEMENT_3D('',#535,#442,#443);
#360=AXIS2_PLACEMENT_3D('',#537,#444,#445);
#361=AXIS2_PLACEMENT_3D('',#539,#447,#448);
#362=AXIS2_PLACEMENT_3D('',#540,#449,#450);
#363=AXIS2_PLACEMENT_3D('',#542,#451,#452);
#364=AXIS2_PLACEMENT_3D('',#545,#454,#455);
#365=AXIS2_PLACEMENT_3D('',#546,#456,#457);
#366=AXIS2_PLACEMENT_3D('',#548,#458,#459);
#367=AXIS2_PLACEMENT_3D('',#551,#461,#462);
#368=AXIS2_PLACEMENT_3D('',#552,#463,#464);
#369=AXIS2_PLACEMENT_3D('',#553,#465,#466);
#370=AXIS2_PLACEMENT_3D('',#554,#467,#468);
#371=AXIS2_PLACEMENT_3D('',#556,#469,#470);
#372=AXIS2_PLACEMENT_3D('',#559,#472,#473);
#373=AXIS2_PLACEMENT_3D('',#560,#474,#475);
#374=AXIS2_PLACEMENT_3D('',#562,#476,#477);
#375=AXIS2_PLACEMENT_3D('',#565,#479,#480);
#376=AXIS2_PLACEMENT_3D('',#566,#481,#482);
#377=AXIS2_PLACEMENT_3D('',#567,#483,#484);
#378=DIRECTION('axis',(0.,0.,1.));
#379=DIRECTION('refdir',(1.,0.,0.));
#380=DIRECTION('center_axis',(0.,0.,1.));
#381=DIRECTION('ref_axis',(1.,0.,0.));
#382=DIRECTION('center_axis',(0.,0.,1.));
#383=DIRECTION('ref_axis',(0.,-1.,0.));
#384=DIRECTION('',(0.,0.,-1.));
#385=DIRECTION('center_axis',(0.,0.,1.));
#386=DIRECTION('ref_axis',(1.,0.,0.));
#387=DIRECTION('center_axis',(0.,0.,1.));
#388=DIRECTION('ref_axis',(0.,-1.,0.));
#389=DIRECTION('center_axis',(0.,0.,1.));
#390=DIRECTION('ref_axis',(1.,0.,0.));
#391=DIRECTION('center_axis',(0.,0.,1.));
#392=DIRECTION('ref_axis',(1.,0.,0.));
#393=DIRECTION('',(0.,0.,-1.));
#394=DIRECTION('center_axis',(0.,0.,-1.));
#395=DIRECTION('ref_axis',(0.,-1.,0.));
#396=DIRECTION('center_axis',(0.,0.,-1.));
#397=DIRECTION('ref_axis',(0.,-1.,0.));
#398=DIRECTION('center_axis',(0.,0.,-1.));
#399=DIRECTION('ref_axis',(1.,0.,0.));
#400=DIRECTION('center_axis',(0.,0.,-1.));
#401=DIRECTION('ref_axis',(1.,0.,0.));
#402=DIRECTION('',(0.,0.,-1.));
#403=DIRECTION('center_axis',(0.,0.,-1.));
#404=DIRECTION('ref_axis',(1.,0.,0.));
#405=DIRECTION('center_axis',(0.,0.,1.));
#406=DIRECTION('ref_axis',(1.,0.,0.));
#407=DIRECTION('center_axis',(0.,0.,-1.));
#408=DIRECTION('ref_axis',(1.,0.,0.));
#409=DIRECTION('center_axis',(0.,0.,1.));
#410=DIRECTION('ref_axis',(1.,0.,0.));
#411=DIRECTION('center_axis',(0.,0.,1.));
#412=DIRECTION('ref_axis',(1.,0.,0.));
#413=DIRECTION('center_axis',(0.,0.,1.));
#414=DIRECTION('ref_axis',(1.,0.,0.));
#415=DIRECTION('center_axis',(0.,0.,1.));
#416=DIRECTION('ref_axis',(1.,0.,0.));
#417=DIRECTION('center_axis',(0.,0.,1.));
#418=DIRECTION('ref_axis',(1.,0.,0.));
#419=DIRECTION('center_axis',(0.,0.,-1.));
#420=DIRECTION('ref_axis',(1.,0.,0.));
#421=DIRECTION('center_axis',(9.96735728823888E-17,1.3830825329902E-16,
-1.));
#422=DIRECTION('ref_axis',(-1.,0.,-9.60192886162297E-17));
#423=DIRECTION('center_axis',(1.22464679914735E-16,1.,1.3830825329902E-16));
#424=DIRECTION('ref_axis',(1.,-1.22464679914735E-16,8.00160738468581E-17));
#425=DIRECTION('center_axis',(0.,0.,1.));
#426=DIRECTION('ref_axis',(1.,0.,0.));
#427=DIRECTION('center_axis',(0.,0.,1.));
#428=DIRECTION('ref_axis',(1.,0.,0.));
#429=DIRECTION('',(0.,0.,1.));
#430=DIRECTION('center_axis',(0.,0.,-1.));
#431=DIRECTION('ref_axis',(1.,0.,0.));
#432=DIRECTION('center_axis',(0.,0.,-1.));
#433=DIRECTION('ref_axis',(1.,0.,0.));
#434=DIRECTION('',(0.,0.,1.));
#435=DIRECTION('center_axis',(0.,0.,1.));
#436=DIRECTION('ref_axis',(1.,0.,0.));
#437=DIRECTION('center_axis',(0.,0.,-1.));
#438=DIRECTION('ref_axis',(1.,0.,0.));
#439=DIRECTION('center_axis',(0.,0.,-1.));
#440=DIRECTION('ref_axis',(1.,0.,0.));
#441=DIRECTION('',(0.,0.,-1.));
#442=DIRECTION('center_axis',(0.,0.,1.));
#443=DIRECTION('ref_axis',(1.,0.,0.));
#444=DIRECTION('center_axis',(0.,0.,1.));
#445=DIRECTION('ref_axis',(1.,0.,0.));
#446=DIRECTION('',(0.,0.,-1.));
#447=DIRECTION('center_axis',(0.,0.,-1.));
#448=DIRECTION('ref_axis',(-1.,0.,0.));
#449=DIRECTION('center_axis',(0.,0.,-1.));
#450=DIRECTION('ref_axis',(1.,0.,0.));
#451=DIRECTION('center_axis',(0.,0.,-1.));
#452=DIRECTION('ref_axis',(1.,0.,0.));
#453=DIRECTION('',(0.,0.,1.));
#454=DIRECTION('center_axis',(0.,0.,-1.));
#455=DIRECTION('ref_axis',(1.,0.,0.));
#456=DIRECTION('center_axis',(0.,0.,1.));
#457=DIRECTION('ref_axis',(1.,0.,0.));
#458=DIRECTION('center_axis',(0.,0.,1.));
#459=DIRECTION('ref_axis',(1.,0.,0.));
#460=DIRECTION('',(0.,0.,1.));
#461=DIRECTION('center_axis',(0.,0.,1.));
#462=DIRECTION('ref_axis',(1.,0.,0.));
#463=DIRECTION('center_axis',(0.,0.,-1.));
#464=DIRECTION('ref_axis',(-1.,0.,0.));
#465=DIRECTION('center_axis',(0.,0.,-1.));
#466=DIRECTION('ref_axis',(-1.,0.,0.));
#467=DIRECTION('center_axis',(0.,0.,1.));
#468=DIRECTION('ref_axis',(1.,0.,0.));
#469=DIRECTION('center_axis',(0.,0.,1.));
#470=DIRECTION('ref_axis',(1.,0.,0.));
#471=DIRECTION('',(0.,0.,-1.));
#472=DIRECTION('center_axis',(0.,0.,1.));
#473=DIRECTION('ref_axis',(1.,0.,0.));
#474=DIRECTION('center_axis',(0.,0.,-1.));
#475=DIRECTION('ref_axis',(1.,0.,0.));
#476=DIRECTION('center_axis',(0.,0.,-1.));
#477=DIRECTION('ref_axis',(1.,0.,0.));
#478=DIRECTION('',(0.,0.,-1.));
#479=DIRECTION('center_axis',(0.,0.,-1.));
#480=DIRECTION('ref_axis',(1.,0.,0.));
#481=DIRECTION('center_axis',(0.,0.,1.));
#482=DIRECTION('ref_axis',(1.,0.,0.));
#483=DIRECTION('center_axis',(0.,0.,1.));
#484=DIRECTION('ref_axis',(1.,0.,0.));
#485=CARTESIAN_POINT('',(0.,0.,0.));
#486=CARTESIAN_POINT('Origin',(0.,0.,-15.9));
#487=CARTESIAN_POINT('',(-17.5,-2.14313189850787E-15,-12.1852685865244));
#488=CARTESIAN_POINT('',(17.5,-5.9982513965541E-15,-12.1852685865244));
#489=CARTESIAN_POINT('Origin',(0.,0.,-12.1852685865244));
#490=CARTESIAN_POINT('',(-17.5,0.,-15.9));
#491=CARTESIAN_POINT('',(-17.5,-2.14313189850787E-15,-15.9));
#492=CARTESIAN_POINT('Origin',(0.,0.,-15.9));
#493=CARTESIAN_POINT('Origin',(0.,0.,-12.1852685865244));
#494=CARTESIAN_POINT('Origin',(0.,0.,-15.9));
#495=CARTESIAN_POINT('',(-17.5,0.,0.));
#496=CARTESIAN_POINT('Origin',(0.,0.,0.));
#497=CARTESIAN_POINT('',(-17.5,-2.14313189850787E-15,-3.71473141347564));
#498=CARTESIAN_POINT('',(-17.5,-2.14313189850787E-15,-15.9));
#499=CARTESIAN_POINT('',(17.5,-7.16979659746289E-15,-3.71473141347565));
#500=CARTESIAN_POINT('Origin',(0.,0.,-3.71473141347565));
#501=CARTESIAN_POINT('Origin',(0.,0.,-3.71473141347565));
#502=CARTESIAN_POINT('Origin',(0.,0.,-15.9));
#503=CARTESIAN_POINT('',(-6.,0.,0.));
#504=CARTESIAN_POINT('Origin',(0.,0.,0.));
#505=CARTESIAN_POINT('',(-6.,0.,-15.9));
#506=CARTESIAN_POINT('',(-6.,7.34788079488412E-16,-15.9));
#507=CARTESIAN_POINT('Origin',(0.,0.,-15.9));
#508=CARTESIAN_POINT('Origin',(-21.0000005112452,-21.000000511245,-15.9));
#509=CARTESIAN_POINT('',(-14.,0.,-15.9));
#510=CARTESIAN_POINT('Origin',(0.,0.,-15.9));
#511=CARTESIAN_POINT('Origin',(-21.0000005112452,-21.000000511245,-15.9));
#512=CARTESIAN_POINT('',(-9.,0.,-15.9));
#513=CARTESIAN_POINT('Origin',(0.,0.,-15.9));
#514=CARTESIAN_POINT('Origin',(-21.0000005112452,-21.000000511245,0.));
#515=CARTESIAN_POINT('',(-14.,0.,0.));
#516=CARTESIAN_POINT('Origin',(0.,0.,0.));
#517=CARTESIAN_POINT('Origin',(-21.0000005112452,-21.000000511245,0.));
#518=CARTESIAN_POINT('',(-9.,0.,0.));
#519=CARTESIAN_POINT('Origin',(0.,0.,0.));
#520=CARTESIAN_POINT('Origin',(-1.17961196366423E-15,-4.44089209850063E-15,
-7.95));
#521=CARTESIAN_POINT('Origin',(21.75,-7.10449888664612E-15,-7.95));
#522=CARTESIAN_POINT('Origin',(0.,0.,0.));
#523=CARTESIAN_POINT('',(-14.,0.,-1.));
#524=CARTESIAN_POINT('Origin',(0.,0.,-1.));
#525=CARTESIAN_POINT('',(-14.,-1.71450551880629E-15,0.));
#526=CARTESIAN_POINT('Origin',(0.,0.,0.));
#527=CARTESIAN_POINT('',(-9.,0.,-1.));
#528=CARTESIAN_POINT('Origin',(0.,0.,-1.));
#529=CARTESIAN_POINT('',(-9.,1.10218211923262E-15,0.));
#530=CARTESIAN_POINT('Origin',(-16.8000055962007,-16.8000055962007,-1.));
#531=CARTESIAN_POINT('Origin',(0.,0.,-15.9));
#532=CARTESIAN_POINT('',(-14.,0.,-14.9));
#533=CARTESIAN_POINT('Origin',(0.,0.,-14.9));
#534=CARTESIAN_POINT('',(-14.,1.71450551880629E-15,-15.9));
#535=CARTESIAN_POINT('Origin',(0.,0.,-15.9));
#536=CARTESIAN_POINT('',(-9.,0.,-14.9));
#537=CARTESIAN_POINT('Origin',(0.,0.,-14.9));
#538=CARTESIAN_POINT('',(-9.,-1.10218211923262E-15,-15.9));
#539=CARTESIAN_POINT('Origin',(-16.8000005111196,16.8000005111196,-14.9));
#540=CARTESIAN_POINT('Origin',(0.,0.,-14.9));
#541=CARTESIAN_POINT('',(-14.,0.,-15.7));
#542=CARTESIAN_POINT('Origin',(0.,0.,-15.7));
#543=CARTESIAN_POINT('',(-14.,0.,-14.9));
#544=CARTESIAN_POINT('',(-14.,1.71450551880629E-15,-14.9));
#545=CARTESIAN_POINT('Origin',(0.,0.,-14.9));
#546=CARTESIAN_POINT('Origin',(0.,0.,-14.9));
#547=CARTESIAN_POINT('',(-9.,0.,-15.7));
#548=CARTESIAN_POINT('Origin',(0.,0.,-15.7));
#549=CARTESIAN_POINT('',(-9.,0.,-14.9));
#550=CARTESIAN_POINT('',(-9.,-1.10218211923262E-15,-14.9));
#551=CARTESIAN_POINT('Origin',(0.,0.,-14.9));
#552=CARTESIAN_POINT('Origin',(-16.8000005111196,16.8000005111196,-14.9));
#553=CARTESIAN_POINT('Origin',(-16.8000005111196,16.8000005111196,-15.7));
#554=CARTESIAN_POINT('Origin',(0.,0.,-1.));
#555=CARTESIAN_POINT('',(-14.,0.,-0.199999999999999));
#556=CARTESIAN_POINT('Origin',(0.,0.,-0.199999999999999));
#557=CARTESIAN_POINT('',(-14.,0.,-1.));
#558=CARTESIAN_POINT('',(-14.,-1.71450551880629E-15,-1.));
#559=CARTESIAN_POINT('Origin',(0.,0.,-1.));
#560=CARTESIAN_POINT('Origin',(0.,0.,-1.));
#561=CARTESIAN_POINT('',(-9.,0.,-0.199999999999999));
#562=CARTESIAN_POINT('Origin',(0.,0.,-0.199999999999999));
#563=CARTESIAN_POINT('',(-9.,0.,-1.));
#564=CARTESIAN_POINT('',(-9.,1.10218211923262E-15,-1.));
#565=CARTESIAN_POINT('Origin',(0.,0.,-1.));
#566=CARTESIAN_POINT('Origin',(-16.8000055962007,-16.8000055962007,-1.));
#567=CARTESIAN_POINT('Origin',(-16.8000055962007,-16.8000055962007,-0.199999999999999));
#568=UNCERTAINTY_MEASURE_WITH_UNIT(LENGTH_MEASURE(0.01),#572,
'DISTANCE_ACCURACY_VALUE',
'Maximum model space distance between geometric entities at asserted c
onnectivities');
#569=UNCERTAINTY_MEASURE_WITH_UNIT(LENGTH_MEASURE(0.01),#572,
'DISTANCE_ACCURACY_VALUE',
'Maximum model space distance between geometric entities at asserted c
onnectivities');
#570=(
GEOMETRIC_REPRESENTATION_CONTEXT(3)
GLOBAL_UNCERTAINTY_ASSIGNED_CONTEXT((#568))
GLOBAL_UNIT_ASSIGNED_CONTEXT((#572,#574,#575))
REPRESENTATION_CONTEXT('','3D')
);
#571=(
GEOMETRIC_REPRESENTATION_CONTEXT(3)
GLOBAL_UNCERTAINTY_ASSIGNED_CONTEXT((#569))
GLOBAL_UNIT_ASSIGNED_CONTEXT((#572,#574,#575))
REPRESENTATION_CONTEXT('','3D')
);
#572=(
LENGTH_UNIT()
NAMED_UNIT(*)
SI_UNIT(.MILLI.,.METRE.)
);
#573=(
LENGTH_UNIT()
NAMED_UNIT(*)
SI_UNIT(.CENTI.,.METRE.)
);
#574=(
NAMED_UNIT(*)
PLANE_ANGLE_UNIT()
SI_UNIT($,.RADIAN.)
);
#575=(
NAMED_UNIT(*)
SI_UNIT($,.STERADIAN.)
SOLID_ANGLE_UNIT()
);
#576=SHAPE_DEFINITION_REPRESENTATION(#577,#578);
#577=PRODUCT_DEFINITION_SHAPE('',$,#580);
#578=SHAPE_REPRESENTATION('',(#330),#570);
#579=PRODUCT_DEFINITION_CONTEXT('part definition',#584,'design');
#580=PRODUCT_DEFINITION('CRUGC0000007','80RT00003-A',#581,#579);
#581=PRODUCT_DEFINITION_FORMATION('A',$,#586);
#582=PRODUCT_RELATED_PRODUCT_CATEGORY('80RT00003-A','80RT00003-A',(#586));
#583=APPLICATION_PROTOCOL_DEFINITION('international standard',
'automotive_design',2009,#584);
#584=APPLICATION_CONTEXT(
'Core Data for Automotive Mechanical Design Process');
#585=PRODUCT_CONTEXT('part definition',#584,'mechanical');
#586=PRODUCT('CRUGC0000007','80RT00003-A',
'ROTELLA DI=12 DE=35 SP=15,9 DT=12',(#585));
#587=PRESENTATION_STYLE_ASSIGNMENT((#588));
#588=SURFACE_STYLE_USAGE(.BOTH.,#591);
#589=SURFACE_STYLE_RENDERING_WITH_PROPERTIES($,#595,(#590));
#590=SURFACE_STYLE_TRANSPARENT(0.);
#591=SURFACE_SIDE_STYLE('',(#592,#589));
#592=SURFACE_STYLE_FILL_AREA(#593);
#593=FILL_AREA_STYLE('',(#594));
#594=FILL_AREA_STYLE_COLOUR('',#595);
#595=COLOUR_RGB('',0.63921568627451,0.63921568627451,0.662745098039216);
ENDSEC;
END-ISO-10303-21;
