ISO-10303-21;
HEADER;
/* Generated by software containing ST-Developer
 * from STEP Tools, Inc. (www.steptools.com) 
 */

FILE_DESCRIPTION(
/* description */ ('Translator using VaultInventorServer'),
/* implementation_level */ '2;1');

FILE_NAME(
/* name */ 
'C:\\DIERRE19\\Designs\\Storico\\FIORANO\\AUTOMAZIONE\\80\\RT\\80RT000
01-A_A.stp',
/* time_stamp */ '2025-03-13T14:53:11+01:00',
/* author */ ('srubbiani'),
/* organization */ (''),
/* preprocessor_version */ 'ST-DEVELOPER v18.1',
/* originating_system */ 'Autodesk Inventor 2022',
/* authorisation */ '');

FILE_SCHEMA (('AUTOMOTIVE_DESIGN { 1 0 10303 214 3 1 1 }'));
ENDSEC;

DATA;
#10=MECHANICAL_DESIGN_GEOMETRIC_PRESENTATION_REPRESENTATION('',(#13,#14,
#15,#16,#17),#573);
#11=SHAPE_REPRESENTATION_RELATIONSHIP('SRR','None',#580,#12);
#12=ADVANCED_BREP_SHAPE_REPRESENTATION('',(#18,#19,#20),#572);
#13=STYLED_ITEM('',(#589),#18);
#14=STYLED_ITEM('',(#590),#303);
#15=STYLED_ITEM('',(#589),#19);
#16=STYLED_ITEM('',(#590),#307);
#17=STYLED_ITEM('',(#589),#20);
#18=MANIFOLD_SOLID_BREP('None',#308);
#19=MANIFOLD_SOLID_BREP('None_1',#309);
#20=MANIFOLD_SOLID_BREP('None_2',#310);
#21=TOROIDAL_SURFACE('',#352,20.65,5.);
#22=FACE_BOUND('',#68,.T.);
#23=FACE_BOUND('',#70,.T.);
#24=FACE_BOUND('',#72,.T.);
#25=FACE_BOUND('',#74,.T.);
#26=FACE_BOUND('',#79,.T.);
#27=FACE_BOUND('',#83,.T.);
#28=FACE_BOUND('',#87,.T.);
#29=FACE_BOUND('',#89,.T.);
#30=FACE_BOUND('',#93,.T.);
#31=FACE_BOUND('',#95,.T.);
#32=PLANE('',#344);
#33=PLANE('',#346);
#34=PLANE('',#348);
#35=PLANE('',#350);
#36=PLANE('',#358);
#37=PLANE('',#363);
#38=PLANE('',#370);
#39=PLANE('',#371);
#40=PLANE('',#378);
#41=PLANE('',#379);
#42=FACE_OUTER_BOUND('',#64,.T.);
#43=FACE_OUTER_BOUND('',#65,.T.);
#44=FACE_OUTER_BOUND('',#66,.T.);
#45=FACE_OUTER_BOUND('',#67,.T.);
#46=FACE_OUTER_BOUND('',#69,.T.);
#47=FACE_OUTER_BOUND('',#71,.T.);
#48=FACE_OUTER_BOUND('',#73,.T.);
#49=FACE_OUTER_BOUND('',#75,.T.);
#50=FACE_OUTER_BOUND('',#76,.T.);
#51=FACE_OUTER_BOUND('',#77,.T.);
#52=FACE_OUTER_BOUND('',#78,.T.);
#53=FACE_OUTER_BOUND('',#80,.T.);
#54=FACE_OUTER_BOUND('',#81,.T.);
#55=FACE_OUTER_BOUND('',#82,.T.);
#56=FACE_OUTER_BOUND('',#84,.T.);
#57=FACE_OUTER_BOUND('',#85,.T.);
#58=FACE_OUTER_BOUND('',#86,.T.);
#59=FACE_OUTER_BOUND('',#88,.T.);
#60=FACE_OUTER_BOUND('',#90,.T.);
#61=FACE_OUTER_BOUND('',#91,.T.);
#62=FACE_OUTER_BOUND('',#92,.T.);
#63=FACE_OUTER_BOUND('',#94,.T.);
#64=EDGE_LOOP('',(#203,#204,#205,#206,#207));
#65=EDGE_LOOP('',(#208,#209,#210,#211,#212));
#66=EDGE_LOOP('',(#213,#214,#215,#216));
#67=EDGE_LOOP('',(#217));
#68=EDGE_LOOP('',(#218));
#69=EDGE_LOOP('',(#219));
#70=EDGE_LOOP('',(#220));
#71=EDGE_LOOP('',(#221));
#72=EDGE_LOOP('',(#222));
#73=EDGE_LOOP('',(#223));
#74=EDGE_LOOP('',(#224));
#75=EDGE_LOOP('',(#225,#226,#227,#228,#229,#230));
#76=EDGE_LOOP('',(#231,#232,#233,#234));
#77=EDGE_LOOP('',(#235,#236,#237,#238));
#78=EDGE_LOOP('',(#239));
#79=EDGE_LOOP('',(#240));
#80=EDGE_LOOP('',(#241,#242,#243,#244));
#81=EDGE_LOOP('',(#245,#246,#247,#248));
#82=EDGE_LOOP('',(#249));
#83=EDGE_LOOP('',(#250));
#84=EDGE_LOOP('',(#251,#252,#253,#254));
#85=EDGE_LOOP('',(#255,#256,#257,#258));
#86=EDGE_LOOP('',(#259));
#87=EDGE_LOOP('',(#260));
#88=EDGE_LOOP('',(#261));
#89=EDGE_LOOP('',(#262));
#90=EDGE_LOOP('',(#263,#264,#265,#266));
#91=EDGE_LOOP('',(#267,#268,#269,#270));
#92=EDGE_LOOP('',(#271));
#93=EDGE_LOOP('',(#272));
#94=EDGE_LOOP('',(#273));
#95=EDGE_LOOP('',(#274));
#96=LINE('',#493,#107);
#97=LINE('',#500,#108);
#98=LINE('',#508,#109);
#99=LINE('',#527,#110);
#100=LINE('',#531,#111);
#101=LINE('',#536,#112);
#102=LINE('',#540,#113);
#103=LINE('',#546,#114);
#104=LINE('',#552,#115);
#105=LINE('',#560,#116);
#106=LINE('',#566,#117);
#107=VECTOR('',#386,17.5);
#108=VECTOR('',#395,17.5);
#109=VECTOR('',#404,6.);
#110=VECTOR('',#431,14.);
#111=VECTOR('',#436,9.);
#112=VECTOR('',#443,14.);
#113=VECTOR('',#448,9.);
#114=VECTOR('',#455,14.);
#115=VECTOR('',#462,9.);
#116=VECTOR('',#473,14.);
#117=VECTOR('',#480,9.);
#118=CIRCLE('',#334,17.5);
#119=CIRCLE('',#335,17.5);
#120=CIRCLE('',#336,17.5);
#121=CIRCLE('',#338,17.5);
#122=CIRCLE('',#339,17.5);
#123=CIRCLE('',#340,17.5);
#124=CIRCLE('',#342,6.);
#125=CIRCLE('',#343,6.);
#126=CIRCLE('',#345,14.);
#127=CIRCLE('',#347,9.);
#128=CIRCLE('',#349,14.);
#129=CIRCLE('',#351,9.);
#130=CIRCLE('',#353,5.);
#131=CIRCLE('',#355,14.);
#132=CIRCLE('',#357,9.);
#133=CIRCLE('',#360,14.);
#134=CIRCLE('',#362,9.);
#135=CIRCLE('',#365,14.);
#136=CIRCLE('',#366,14.);
#137=CIRCLE('',#368,9.);
#138=CIRCLE('',#369,9.);
#139=CIRCLE('',#373,14.);
#140=CIRCLE('',#374,14.);
#141=CIRCLE('',#376,9.);
#142=CIRCLE('',#377,9.);
#143=VERTEX_POINT('',#489);
#144=VERTEX_POINT('',#490);
#145=VERTEX_POINT('',#492);
#146=VERTEX_POINT('',#497);
#147=VERTEX_POINT('',#499);
#148=VERTEX_POINT('',#501);
#149=VERTEX_POINT('',#505);
#150=VERTEX_POINT('',#507);
#151=VERTEX_POINT('',#511);
#152=VERTEX_POINT('',#514);
#153=VERTEX_POINT('',#517);
#154=VERTEX_POINT('',#520);
#155=VERTEX_POINT('',#525);
#156=VERTEX_POINT('',#529);
#157=VERTEX_POINT('',#534);
#158=VERTEX_POINT('',#538);
#159=VERTEX_POINT('',#543);
#160=VERTEX_POINT('',#545);
#161=VERTEX_POINT('',#549);
#162=VERTEX_POINT('',#551);
#163=VERTEX_POINT('',#557);
#164=VERTEX_POINT('',#559);
#165=VERTEX_POINT('',#563);
#166=VERTEX_POINT('',#565);
#167=EDGE_CURVE('',#143,#144,#118,.T.);
#168=EDGE_CURVE('',#143,#145,#96,.T.);
#169=EDGE_CURVE('',#145,#145,#119,.T.);
#170=EDGE_CURVE('',#144,#143,#120,.T.);
#171=EDGE_CURVE('',#146,#146,#121,.T.);
#172=EDGE_CURVE('',#146,#147,#97,.T.);
#173=EDGE_CURVE('',#148,#147,#122,.T.);
#174=EDGE_CURVE('',#147,#148,#123,.T.);
#175=EDGE_CURVE('',#149,#149,#124,.T.);
#176=EDGE_CURVE('',#149,#150,#98,.T.);
#177=EDGE_CURVE('',#150,#150,#125,.T.);
#178=EDGE_CURVE('',#151,#151,#126,.T.);
#179=EDGE_CURVE('',#152,#152,#127,.T.);
#180=EDGE_CURVE('',#153,#153,#128,.T.);
#181=EDGE_CURVE('',#154,#154,#129,.T.);
#182=EDGE_CURVE('',#144,#148,#130,.T.);
#183=EDGE_CURVE('',#155,#155,#131,.T.);
#184=EDGE_CURVE('',#155,#153,#99,.T.);
#185=EDGE_CURVE('',#156,#156,#132,.T.);
#186=EDGE_CURVE('',#156,#154,#100,.T.);
#187=EDGE_CURVE('',#157,#157,#133,.T.);
#188=EDGE_CURVE('',#157,#151,#101,.T.);
#189=EDGE_CURVE('',#158,#158,#134,.T.);
#190=EDGE_CURVE('',#158,#152,#102,.T.);
#191=EDGE_CURVE('',#159,#159,#135,.T.);
#192=EDGE_CURVE('',#159,#160,#103,.T.);
#193=EDGE_CURVE('',#160,#160,#136,.T.);
#194=EDGE_CURVE('',#161,#161,#137,.T.);
#195=EDGE_CURVE('',#161,#162,#104,.T.);
#196=EDGE_CURVE('',#162,#162,#138,.T.);
#197=EDGE_CURVE('',#163,#163,#139,.T.);
#198=EDGE_CURVE('',#163,#164,#105,.T.);
#199=EDGE_CURVE('',#164,#164,#140,.T.);
#200=EDGE_CURVE('',#165,#165,#141,.T.);
#201=EDGE_CURVE('',#165,#166,#106,.T.);
#202=EDGE_CURVE('',#166,#166,#142,.T.);
#203=ORIENTED_EDGE('',*,*,#167,.F.);
#204=ORIENTED_EDGE('',*,*,#168,.T.);
#205=ORIENTED_EDGE('',*,*,#169,.T.);
#206=ORIENTED_EDGE('',*,*,#168,.F.);
#207=ORIENTED_EDGE('',*,*,#170,.F.);
#208=ORIENTED_EDGE('',*,*,#171,.F.);
#209=ORIENTED_EDGE('',*,*,#172,.T.);
#210=ORIENTED_EDGE('',*,*,#173,.F.);
#211=ORIENTED_EDGE('',*,*,#174,.F.);
#212=ORIENTED_EDGE('',*,*,#172,.F.);
#213=ORIENTED_EDGE('',*,*,#175,.F.);
#214=ORIENTED_EDGE('',*,*,#176,.T.);
#215=ORIENTED_EDGE('',*,*,#177,.T.);
#216=ORIENTED_EDGE('',*,*,#176,.F.);
#217=ORIENTED_EDGE('',*,*,#169,.F.);
#218=ORIENTED_EDGE('',*,*,#178,.F.);
#219=ORIENTED_EDGE('',*,*,#179,.F.);
#220=ORIENTED_EDGE('',*,*,#177,.F.);
#221=ORIENTED_EDGE('',*,*,#171,.T.);
#222=ORIENTED_EDGE('',*,*,#180,.F.);
#223=ORIENTED_EDGE('',*,*,#181,.F.);
#224=ORIENTED_EDGE('',*,*,#175,.T.);
#225=ORIENTED_EDGE('',*,*,#167,.T.);
#226=ORIENTED_EDGE('',*,*,#182,.T.);
#227=ORIENTED_EDGE('',*,*,#173,.T.);
#228=ORIENTED_EDGE('',*,*,#174,.T.);
#229=ORIENTED_EDGE('',*,*,#182,.F.);
#230=ORIENTED_EDGE('',*,*,#170,.T.);
#231=ORIENTED_EDGE('',*,*,#183,.F.);
#232=ORIENTED_EDGE('',*,*,#184,.T.);
#233=ORIENTED_EDGE('',*,*,#180,.T.);
#234=ORIENTED_EDGE('',*,*,#184,.F.);
#235=ORIENTED_EDGE('',*,*,#185,.F.);
#236=ORIENTED_EDGE('',*,*,#186,.T.);
#237=ORIENTED_EDGE('',*,*,#181,.T.);
#238=ORIENTED_EDGE('',*,*,#186,.F.);
#239=ORIENTED_EDGE('',*,*,#183,.T.);
#240=ORIENTED_EDGE('',*,*,#185,.T.);
#241=ORIENTED_EDGE('',*,*,#187,.F.);
#242=ORIENTED_EDGE('',*,*,#188,.T.);
#243=ORIENTED_EDGE('',*,*,#178,.T.);
#244=ORIENTED_EDGE('',*,*,#188,.F.);
#245=ORIENTED_EDGE('',*,*,#189,.F.);
#246=ORIENTED_EDGE('',*,*,#190,.T.);
#247=ORIENTED_EDGE('',*,*,#179,.T.);
#248=ORIENTED_EDGE('',*,*,#190,.F.);
#249=ORIENTED_EDGE('',*,*,#187,.T.);
#250=ORIENTED_EDGE('',*,*,#189,.T.);
#251=ORIENTED_EDGE('',*,*,#191,.F.);
#252=ORIENTED_EDGE('',*,*,#192,.T.);
#253=ORIENTED_EDGE('',*,*,#193,.T.);
#254=ORIENTED_EDGE('',*,*,#192,.F.);
#255=ORIENTED_EDGE('',*,*,#194,.F.);
#256=ORIENTED_EDGE('',*,*,#195,.T.);
#257=ORIENTED_EDGE('',*,*,#196,.T.);
#258=ORIENTED_EDGE('',*,*,#195,.F.);
#259=ORIENTED_EDGE('',*,*,#193,.F.);
#260=ORIENTED_EDGE('',*,*,#196,.F.);
#261=ORIENTED_EDGE('',*,*,#191,.T.);
#262=ORIENTED_EDGE('',*,*,#194,.T.);
#263=ORIENTED_EDGE('',*,*,#197,.F.);
#264=ORIENTED_EDGE('',*,*,#198,.T.);
#265=ORIENTED_EDGE('',*,*,#199,.T.);
#266=ORIENTED_EDGE('',*,*,#198,.F.);
#267=ORIENTED_EDGE('',*,*,#200,.F.);
#268=ORIENTED_EDGE('',*,*,#201,.T.);
#269=ORIENTED_EDGE('',*,*,#202,.T.);
#270=ORIENTED_EDGE('',*,*,#201,.F.);
#271=ORIENTED_EDGE('',*,*,#199,.F.);
#272=ORIENTED_EDGE('',*,*,#202,.F.);
#273=ORIENTED_EDGE('',*,*,#197,.T.);
#274=ORIENTED_EDGE('',*,*,#200,.T.);
#275=CYLINDRICAL_SURFACE('',#333,17.5);
#276=CYLINDRICAL_SURFACE('',#337,17.5);
#277=CYLINDRICAL_SURFACE('',#341,6.);
#278=CYLINDRICAL_SURFACE('',#354,14.);
#279=CYLINDRICAL_SURFACE('',#356,9.);
#280=CYLINDRICAL_SURFACE('',#359,14.);
#281=CYLINDRICAL_SURFACE('',#361,9.);
#282=CYLINDRICAL_SURFACE('',#364,14.);
#283=CYLINDRICAL_SURFACE('',#367,9.);
#284=CYLINDRICAL_SURFACE('',#372,14.);
#285=CYLINDRICAL_SURFACE('',#375,9.);
#286=ADVANCED_FACE('',(#42),#275,.T.);
#287=ADVANCED_FACE('',(#43),#276,.T.);
#288=ADVANCED_FACE('',(#44),#277,.F.);
#289=ADVANCED_FACE('',(#45,#22),#32,.F.);
#290=ADVANCED_FACE('',(#46,#23),#33,.F.);
#291=ADVANCED_FACE('',(#47,#24),#34,.T.);
#292=ADVANCED_FACE('',(#48,#25),#35,.T.);
#293=ADVANCED_FACE('',(#49),#21,.F.);
#294=ADVANCED_FACE('',(#50),#278,.F.);
#295=ADVANCED_FACE('',(#51),#279,.T.);
#296=ADVANCED_FACE('',(#52,#26),#36,.T.);
#297=ADVANCED_FACE('',(#53),#280,.F.);
#298=ADVANCED_FACE('',(#54),#281,.T.);
#299=ADVANCED_FACE('',(#55,#27),#37,.T.);
#300=ADVANCED_FACE('',(#56),#282,.T.);
#301=ADVANCED_FACE('',(#57),#283,.F.);
#302=ADVANCED_FACE('',(#58,#28),#38,.F.);
#303=ADVANCED_FACE('',(#59,#29),#39,.T.);
#304=ADVANCED_FACE('',(#60),#284,.T.);
#305=ADVANCED_FACE('',(#61),#285,.F.);
#306=ADVANCED_FACE('',(#62,#30),#40,.F.);
#307=ADVANCED_FACE('',(#63,#31),#41,.T.);
#308=CLOSED_SHELL('',(#286,#287,#288,#289,#290,#291,#292,#293,#294,#295,
#296,#297,#298,#299));
#309=CLOSED_SHELL('',(#300,#301,#302,#303));
#310=CLOSED_SHELL('',(#304,#305,#306,#307));
#311=DERIVED_UNIT_ELEMENT(#314,1.);
#312=DERIVED_UNIT_ELEMENT(#575,-3.);
#313=DIMENSIONAL_EXPONENTS(1.,0.,0.,0.,0.,0.,0.);
#314=(
CONVERSION_BASED_UNIT('gram',#316)
MASS_UNIT()
NAMED_UNIT(#313)
);
#315=(
MASS_UNIT()
NAMED_UNIT(*)
SI_UNIT(.KILO.,.GRAM.)
);
#316=MASS_MEASURE_WITH_UNIT(MASS_MEASURE(0.001),#315);
#317=DERIVED_UNIT((#311,#312));
#318=MEASURE_REPRESENTATION_ITEM('density measure',
POSITIVE_RATIO_MEASURE(7.85),#317);
#319=PROPERTY_DEFINITION_REPRESENTATION(#324,#321);
#320=PROPERTY_DEFINITION_REPRESENTATION(#325,#322);
#321=REPRESENTATION('material name',(#323),#572);
#322=REPRESENTATION('density',(#318),#572);
#323=DESCRIPTIVE_REPRESENTATION_ITEM('Steel','Steel');
#324=PROPERTY_DEFINITION('material property','material name',#582);
#325=PROPERTY_DEFINITION('material property','density of part',#582);
#326=DATE_TIME_ROLE('creation_date');
#327=APPLIED_DATE_AND_TIME_ASSIGNMENT(#328,#326,(#582));
#328=DATE_AND_TIME(#329,#330);
#329=CALENDAR_DATE(2012,19,3);
#330=LOCAL_TIME(0,0,0.,#331);
#331=COORDINATED_UNIVERSAL_TIME_OFFSET(0,0,.BEHIND.);
#332=AXIS2_PLACEMENT_3D('placement',#487,#380,#381);
#333=AXIS2_PLACEMENT_3D('',#488,#382,#383);
#334=AXIS2_PLACEMENT_3D('',#491,#384,#385);
#335=AXIS2_PLACEMENT_3D('',#494,#387,#388);
#336=AXIS2_PLACEMENT_3D('',#495,#389,#390);
#337=AXIS2_PLACEMENT_3D('',#496,#391,#392);
#338=AXIS2_PLACEMENT_3D('',#498,#393,#394);
#339=AXIS2_PLACEMENT_3D('',#502,#396,#397);
#340=AXIS2_PLACEMENT_3D('',#503,#398,#399);
#341=AXIS2_PLACEMENT_3D('',#504,#400,#401);
#342=AXIS2_PLACEMENT_3D('',#506,#402,#403);
#343=AXIS2_PLACEMENT_3D('',#509,#405,#406);
#344=AXIS2_PLACEMENT_3D('',#510,#407,#408);
#345=AXIS2_PLACEMENT_3D('',#512,#409,#410);
#346=AXIS2_PLACEMENT_3D('',#513,#411,#412);
#347=AXIS2_PLACEMENT_3D('',#515,#413,#414);
#348=AXIS2_PLACEMENT_3D('',#516,#415,#416);
#349=AXIS2_PLACEMENT_3D('',#518,#417,#418);
#350=AXIS2_PLACEMENT_3D('',#519,#419,#420);
#351=AXIS2_PLACEMENT_3D('',#521,#421,#422);
#352=AXIS2_PLACEMENT_3D('',#522,#423,#424);
#353=AXIS2_PLACEMENT_3D('',#523,#425,#426);
#354=AXIS2_PLACEMENT_3D('',#524,#427,#428);
#355=AXIS2_PLACEMENT_3D('',#526,#429,#430);
#356=AXIS2_PLACEMENT_3D('',#528,#432,#433);
#357=AXIS2_PLACEMENT_3D('',#530,#434,#435);
#358=AXIS2_PLACEMENT_3D('',#532,#437,#438);
#359=AXIS2_PLACEMENT_3D('',#533,#439,#440);
#360=AXIS2_PLACEMENT_3D('',#535,#441,#442);
#361=AXIS2_PLACEMENT_3D('',#537,#444,#445);
#362=AXIS2_PLACEMENT_3D('',#539,#446,#447);
#363=AXIS2_PLACEMENT_3D('',#541,#449,#450);
#364=AXIS2_PLACEMENT_3D('',#542,#451,#452);
#365=AXIS2_PLACEMENT_3D('',#544,#453,#454);
#366=AXIS2_PLACEMENT_3D('',#547,#456,#457);
#367=AXIS2_PLACEMENT_3D('',#548,#458,#459);
#368=AXIS2_PLACEMENT_3D('',#550,#460,#461);
#369=AXIS2_PLACEMENT_3D('',#553,#463,#464);
#370=AXIS2_PLACEMENT_3D('',#554,#465,#466);
#371=AXIS2_PLACEMENT_3D('',#555,#467,#468);
#372=AXIS2_PLACEMENT_3D('',#556,#469,#470);
#373=AXIS2_PLACEMENT_3D('',#558,#471,#472);
#374=AXIS2_PLACEMENT_3D('',#561,#474,#475);
#375=AXIS2_PLACEMENT_3D('',#562,#476,#477);
#376=AXIS2_PLACEMENT_3D('',#564,#478,#479);
#377=AXIS2_PLACEMENT_3D('',#567,#481,#482);
#378=AXIS2_PLACEMENT_3D('',#568,#483,#484);
#379=AXIS2_PLACEMENT_3D('',#569,#485,#486);
#380=DIRECTION('axis',(0.,0.,1.));
#381=DIRECTION('refdir',(1.,0.,0.));
#382=DIRECTION('center_axis',(0.,0.,1.));
#383=DIRECTION('ref_axis',(1.,0.,0.));
#384=DIRECTION('center_axis',(0.,0.,1.));
#385=DIRECTION('ref_axis',(0.,-1.,0.));
#386=DIRECTION('',(0.,0.,-1.));
#387=DIRECTION('center_axis',(0.,0.,1.));
#388=DIRECTION('ref_axis',(1.,0.,0.));
#389=DIRECTION('center_axis',(0.,0.,1.));
#390=DIRECTION('ref_axis',(0.,-1.,0.));
#391=DIRECTION('center_axis',(0.,0.,1.));
#392=DIRECTION('ref_axis',(1.,0.,0.));
#393=DIRECTION('center_axis',(0.,0.,1.));
#394=DIRECTION('ref_axis',(1.,0.,0.));
#395=DIRECTION('',(0.,0.,-1.));
#396=DIRECTION('center_axis',(0.,0.,-1.));
#397=DIRECTION('ref_axis',(0.,-1.,0.));
#398=DIRECTION('center_axis',(0.,0.,-1.));
#399=DIRECTION('ref_axis',(0.,-1.,0.));
#400=DIRECTION('center_axis',(0.,0.,-1.));
#401=DIRECTION('ref_axis',(1.,0.,0.));
#402=DIRECTION('center_axis',(0.,0.,-1.));
#403=DIRECTION('ref_axis',(1.,0.,0.));
#404=DIRECTION('',(0.,0.,-1.));
#405=DIRECTION('center_axis',(0.,0.,-1.));
#406=DIRECTION('ref_axis',(1.,0.,0.));
#407=DIRECTION('center_axis',(0.,0.,1.));
#408=DIRECTION('ref_axis',(1.,0.,0.));
#409=DIRECTION('center_axis',(0.,0.,-1.));
#410=DIRECTION('ref_axis',(1.,0.,0.));
#411=DIRECTION('center_axis',(0.,0.,1.));
#412=DIRECTION('ref_axis',(1.,0.,0.));
#413=DIRECTION('center_axis',(0.,0.,1.));
#414=DIRECTION('ref_axis',(1.,0.,0.));
#415=DIRECTION('center_axis',(0.,0.,1.));
#416=DIRECTION('ref_axis',(1.,0.,0.));
#417=DIRECTION('center_axis',(0.,0.,1.));
#418=DIRECTION('ref_axis',(1.,0.,0.));
#419=DIRECTION('center_axis',(0.,0.,1.));
#420=DIRECTION('ref_axis',(1.,0.,0.));
#421=DIRECTION('center_axis',(0.,0.,-1.));
#422=DIRECTION('ref_axis',(1.,0.,0.));
#423=DIRECTION('center_axis',(4.9243499144701E-17,1.16870043086235E-16,
-1.));
#424=DIRECTION('ref_axis',(-1.,0.,-3.46268389746637E-17));
#425=DIRECTION('center_axis',(1.22464679914735E-16,1.,1.16870043086235E-16));
#426=DIRECTION('ref_axis',(1.,-1.22464679914735E-16,4.32835487183297E-17));
#427=DIRECTION('center_axis',(0.,0.,1.));
#428=DIRECTION('ref_axis',(1.,0.,0.));
#429=DIRECTION('center_axis',(0.,0.,1.));
#430=DIRECTION('ref_axis',(1.,0.,0.));
#431=DIRECTION('',(0.,0.,1.));
#432=DIRECTION('center_axis',(0.,0.,-1.));
#433=DIRECTION('ref_axis',(1.,0.,0.));
#434=DIRECTION('center_axis',(0.,0.,-1.));
#435=DIRECTION('ref_axis',(1.,0.,0.));
#436=DIRECTION('',(0.,0.,1.));
#437=DIRECTION('center_axis',(0.,0.,1.));
#438=DIRECTION('ref_axis',(1.,0.,0.));
#439=DIRECTION('center_axis',(0.,0.,-1.));
#440=DIRECTION('ref_axis',(1.,0.,0.));
#441=DIRECTION('center_axis',(0.,0.,-1.));
#442=DIRECTION('ref_axis',(1.,0.,0.));
#443=DIRECTION('',(0.,0.,-1.));
#444=DIRECTION('center_axis',(0.,0.,1.));
#445=DIRECTION('ref_axis',(1.,0.,0.));
#446=DIRECTION('center_axis',(0.,0.,1.));
#447=DIRECTION('ref_axis',(1.,0.,0.));
#448=DIRECTION('',(0.,0.,-1.));
#449=DIRECTION('center_axis',(0.,0.,-1.));
#450=DIRECTION('ref_axis',(-1.,0.,0.));
#451=DIRECTION('center_axis',(0.,0.,-1.));
#452=DIRECTION('ref_axis',(1.,0.,0.));
#453=DIRECTION('center_axis',(0.,0.,-1.));
#454=DIRECTION('ref_axis',(1.,0.,0.));
#455=DIRECTION('',(0.,0.,1.));
#456=DIRECTION('center_axis',(0.,0.,-1.));
#457=DIRECTION('ref_axis',(1.,0.,0.));
#458=DIRECTION('center_axis',(0.,0.,1.));
#459=DIRECTION('ref_axis',(1.,0.,0.));
#460=DIRECTION('center_axis',(0.,0.,1.));
#461=DIRECTION('ref_axis',(1.,0.,0.));
#462=DIRECTION('',(0.,0.,1.));
#463=DIRECTION('center_axis',(0.,0.,1.));
#464=DIRECTION('ref_axis',(1.,0.,0.));
#465=DIRECTION('center_axis',(0.,0.,-1.));
#466=DIRECTION('ref_axis',(-1.,0.,0.));
#467=DIRECTION('center_axis',(0.,0.,-1.));
#468=DIRECTION('ref_axis',(-1.,0.,0.));
#469=DIRECTION('center_axis',(0.,0.,1.));
#470=DIRECTION('ref_axis',(1.,0.,0.));
#471=DIRECTION('center_axis',(0.,0.,1.));
#472=DIRECTION('ref_axis',(1.,0.,0.));
#473=DIRECTION('',(0.,0.,-1.));
#474=DIRECTION('center_axis',(0.,0.,1.));
#475=DIRECTION('ref_axis',(1.,0.,0.));
#476=DIRECTION('center_axis',(0.,0.,-1.));
#477=DIRECTION('ref_axis',(1.,0.,0.));
#478=DIRECTION('center_axis',(0.,0.,-1.));
#479=DIRECTION('ref_axis',(1.,0.,0.));
#480=DIRECTION('',(0.,0.,-1.));
#481=DIRECTION('center_axis',(0.,0.,-1.));
#482=DIRECTION('ref_axis',(1.,0.,0.));
#483=DIRECTION('center_axis',(0.,0.,1.));
#484=DIRECTION('ref_axis',(1.,0.,0.));
#485=DIRECTION('center_axis',(0.,0.,1.));
#486=DIRECTION('ref_axis',(1.,0.,0.));
#487=CARTESIAN_POINT('',(0.,0.,0.));
#488=CARTESIAN_POINT('Origin',(0.,0.,-15.9));
#489=CARTESIAN_POINT('',(-17.5,-2.14313189850787E-15,-11.8329756630708));
#490=CARTESIAN_POINT('',(17.5,-2.79955139008714E-15,-11.8329756630708));
#491=CARTESIAN_POINT('Origin',(0.,0.,-11.8329756630708));
#492=CARTESIAN_POINT('',(-17.5,0.,-15.9));
#493=CARTESIAN_POINT('',(-17.5,-2.14313189850787E-15,-15.9));
#494=CARTESIAN_POINT('Origin',(0.,0.,-15.9));
#495=CARTESIAN_POINT('Origin',(0.,0.,-11.8329756630708));
#496=CARTESIAN_POINT('Origin',(0.,0.,-15.9));
#497=CARTESIAN_POINT('',(-17.5,0.,0.));
#498=CARTESIAN_POINT('Origin',(0.,0.,0.));
#499=CARTESIAN_POINT('',(-17.5,-2.14313189850787E-15,-4.06702433692922));
#500=CARTESIAN_POINT('',(-17.5,-2.14313189850787E-15,-15.9));
#501=CARTESIAN_POINT('',(17.5,-3.70715845617891E-15,-4.06702433692922));
#502=CARTESIAN_POINT('Origin',(0.,0.,-4.06702433692922));
#503=CARTESIAN_POINT('Origin',(0.,0.,-4.06702433692922));
#504=CARTESIAN_POINT('Origin',(0.,0.,-15.9));
#505=CARTESIAN_POINT('',(-6.,0.,0.));
#506=CARTESIAN_POINT('Origin',(0.,0.,0.));
#507=CARTESIAN_POINT('',(-6.,0.,-15.9));
#508=CARTESIAN_POINT('',(-6.,7.34788079488412E-16,-15.9));
#509=CARTESIAN_POINT('Origin',(0.,0.,-15.9));
#510=CARTESIAN_POINT('Origin',(-21.0000005112452,-21.000000511245,-15.9));
#511=CARTESIAN_POINT('',(-14.,0.,-15.9));
#512=CARTESIAN_POINT('Origin',(0.,0.,-15.9));
#513=CARTESIAN_POINT('Origin',(-21.0000005112452,-21.000000511245,-15.9));
#514=CARTESIAN_POINT('',(-9.,0.,-15.9));
#515=CARTESIAN_POINT('Origin',(0.,0.,-15.9));
#516=CARTESIAN_POINT('Origin',(-21.0000005112452,-21.000000511245,0.));
#517=CARTESIAN_POINT('',(-14.,0.,0.));
#518=CARTESIAN_POINT('Origin',(0.,0.,0.));
#519=CARTESIAN_POINT('Origin',(-21.0000005112452,-21.000000511245,0.));
#520=CARTESIAN_POINT('',(-9.,0.,0.));
#521=CARTESIAN_POINT('Origin',(0.,0.,0.));
#522=CARTESIAN_POINT('Origin',(9.0205620750794E-16,-1.11022302462516E-15,
-7.95));
#523=CARTESIAN_POINT('Origin',(20.65,-3.63911866486444E-15,-7.95));
#524=CARTESIAN_POINT('Origin',(0.,0.,0.));
#525=CARTESIAN_POINT('',(-14.,0.,-1.));
#526=CARTESIAN_POINT('Origin',(0.,0.,-1.));
#527=CARTESIAN_POINT('',(-14.,-1.71450551880629E-15,0.));
#528=CARTESIAN_POINT('Origin',(0.,0.,0.));
#529=CARTESIAN_POINT('',(-9.,0.,-1.));
#530=CARTESIAN_POINT('Origin',(0.,0.,-1.));
#531=CARTESIAN_POINT('',(-9.,1.10218211923262E-15,0.));
#532=CARTESIAN_POINT('Origin',(-16.8000055962007,-16.8000055962007,-1.));
#533=CARTESIAN_POINT('Origin',(0.,0.,-15.9));
#534=CARTESIAN_POINT('',(-14.,0.,-14.9));
#535=CARTESIAN_POINT('Origin',(0.,0.,-14.9));
#536=CARTESIAN_POINT('',(-14.,1.71450551880629E-15,-15.9));
#537=CARTESIAN_POINT('Origin',(0.,0.,-15.9));
#538=CARTESIAN_POINT('',(-9.,0.,-14.9));
#539=CARTESIAN_POINT('Origin',(0.,0.,-14.9));
#540=CARTESIAN_POINT('',(-9.,-1.10218211923262E-15,-15.9));
#541=CARTESIAN_POINT('Origin',(-16.8000005111196,16.8000005111196,-14.9));
#542=CARTESIAN_POINT('Origin',(0.,0.,-14.9));
#543=CARTESIAN_POINT('',(-14.,0.,-15.7));
#544=CARTESIAN_POINT('Origin',(0.,0.,-15.7));
#545=CARTESIAN_POINT('',(-14.,0.,-14.9));
#546=CARTESIAN_POINT('',(-14.,1.71450551880629E-15,-14.9));
#547=CARTESIAN_POINT('Origin',(0.,0.,-14.9));
#548=CARTESIAN_POINT('Origin',(0.,0.,-14.9));
#549=CARTESIAN_POINT('',(-9.,0.,-15.7));
#550=CARTESIAN_POINT('Origin',(0.,0.,-15.7));
#551=CARTESIAN_POINT('',(-9.,0.,-14.9));
#552=CARTESIAN_POINT('',(-9.,-1.10218211923262E-15,-14.9));
#553=CARTESIAN_POINT('Origin',(0.,0.,-14.9));
#554=CARTESIAN_POINT('Origin',(-16.8000005111196,16.8000005111196,-14.9));
#555=CARTESIAN_POINT('Origin',(-16.8000005111196,16.8000005111196,-15.7));
#556=CARTESIAN_POINT('Origin',(0.,0.,-1.));
#557=CARTESIAN_POINT('',(-14.,0.,-0.199999999999999));
#558=CARTESIAN_POINT('Origin',(0.,0.,-0.199999999999999));
#559=CARTESIAN_POINT('',(-14.,0.,-1.));
#560=CARTESIAN_POINT('',(-14.,-1.71450551880629E-15,-1.));
#561=CARTESIAN_POINT('Origin',(0.,0.,-1.));
#562=CARTESIAN_POINT('Origin',(0.,0.,-1.));
#563=CARTESIAN_POINT('',(-9.,0.,-0.199999999999999));
#564=CARTESIAN_POINT('Origin',(0.,0.,-0.199999999999999));
#565=CARTESIAN_POINT('',(-9.,0.,-1.));
#566=CARTESIAN_POINT('',(-9.,1.10218211923262E-15,-1.));
#567=CARTESIAN_POINT('Origin',(0.,0.,-1.));
#568=CARTESIAN_POINT('Origin',(-16.8000055962007,-16.8000055962007,-1.));
#569=CARTESIAN_POINT('Origin',(-16.8000055962007,-16.8000055962007,-0.199999999999999));
#570=UNCERTAINTY_MEASURE_WITH_UNIT(LENGTH_MEASURE(0.01),#574,
'DISTANCE_ACCURACY_VALUE',
'Maximum model space distance between geometric entities at asserted c
onnectivities');
#571=UNCERTAINTY_MEASURE_WITH_UNIT(LENGTH_MEASURE(0.01),#574,
'DISTANCE_ACCURACY_VALUE',
'Maximum model space distance between geometric entities at asserted c
onnectivities');
#572=(
GEOMETRIC_REPRESENTATION_CONTEXT(3)
GLOBAL_UNCERTAINTY_ASSIGNED_CONTEXT((#570))
GLOBAL_UNIT_ASSIGNED_CONTEXT((#574,#576,#577))
REPRESENTATION_CONTEXT('','3D')
);
#573=(
GEOMETRIC_REPRESENTATION_CONTEXT(3)
GLOBAL_UNCERTAINTY_ASSIGNED_CONTEXT((#571))
GLOBAL_UNIT_ASSIGNED_CONTEXT((#574,#576,#577))
REPRESENTATION_CONTEXT('','3D')
);
#574=(
LENGTH_UNIT()
NAMED_UNIT(*)
SI_UNIT(.MILLI.,.METRE.)
);
#575=(
LENGTH_UNIT()
NAMED_UNIT(*)
SI_UNIT(.CENTI.,.METRE.)
);
#576=(
NAMED_UNIT(*)
PLANE_ANGLE_UNIT()
SI_UNIT($,.RADIAN.)
);
#577=(
NAMED_UNIT(*)
SI_UNIT($,.STERADIAN.)
SOLID_ANGLE_UNIT()
);
#578=SHAPE_DEFINITION_REPRESENTATION(#579,#580);
#579=PRODUCT_DEFINITION_SHAPE('',$,#582);
#580=SHAPE_REPRESENTATION('',(#332),#572);
#581=PRODUCT_DEFINITION_CONTEXT('part definition',#586,'design');
#582=PRODUCT_DEFINITION('80RT00001-A','80RT00001-A',#583,#581);
#583=PRODUCT_DEFINITION_FORMATION('A',$,#588);
#584=PRODUCT_RELATED_PRODUCT_CATEGORY('80RT00001-A','80RT00001-A',(#588));
#585=APPLICATION_PROTOCOL_DEFINITION('international standard',
'automotive_design',2009,#586);
#586=APPLICATION_CONTEXT(
'Core Data for Automotive Mechanical Design Process');
#587=PRODUCT_CONTEXT('part definition',#586,'mechanical');
#588=PRODUCT('80RT00001-A','80RT00001-A',
'ROTELLA DI=12 DE=35 SP=15,9 DT=10',(#587));
#589=PRESENTATION_STYLE_ASSIGNMENT((#591));
#590=PRESENTATION_STYLE_ASSIGNMENT((#592));
#591=SURFACE_STYLE_USAGE(.BOTH.,#597);
#592=SURFACE_STYLE_USAGE(.BOTH.,#598);
#593=SURFACE_STYLE_RENDERING_WITH_PROPERTIES($,#605,(#595));
#594=SURFACE_STYLE_RENDERING_WITH_PROPERTIES($,#606,(#596));
#595=SURFACE_STYLE_TRANSPARENT(0.);
#596=SURFACE_STYLE_TRANSPARENT(0.);
#597=SURFACE_SIDE_STYLE('',(#599,#593));
#598=SURFACE_SIDE_STYLE('',(#600,#594));
#599=SURFACE_STYLE_FILL_AREA(#601);
#600=SURFACE_STYLE_FILL_AREA(#602);
#601=FILL_AREA_STYLE('',(#603));
#602=FILL_AREA_STYLE('',(#604));
#603=FILL_AREA_STYLE_COLOUR('',#605);
#604=FILL_AREA_STYLE_COLOUR('',#606);
#605=COLOUR_RGB('',0.87843137254902,0.874509803921569,0.858823529411765);
#606=COLOUR_RGB('',0.0196078431372549,0.0196078431372549,0.0196078431372549);
ENDSEC;
END-ISO-10303-21;
