ISO-10303-21;
HEADER;
/* Generated by software containing ST-Developer
 * from STEP Tools, Inc. (www.steptools.com) 
 */

FILE_DESCRIPTION(
/* description */ (''),
/* implementation_level */ '2;1');

FILE_NAME(
/* name */ 'Q:\\MARKETING\\APRPZ0000123\\APRPZ0000123.stp',
/* time_stamp */ '2024-09-10T14:57:12+02:00',
/* author */ ('tecnico4'),
/* organization */ (''),
/* preprocessor_version */ 'ST-DEVELOPER v18.1',
/* originating_system */ 'Autodesk Inventor 2022',
/* authorisation */ '');

FILE_SCHEMA (('AUTOMOTIVE_DESIGN { 1 0 10303 214 3 1 1 }'));
ENDSEC;

DATA;
#10=MECHANICAL_DESIGN_GEOMETRIC_PRESENTATION_REPRESENTATION('',(#13),#460);
#11=SHAPE_REPRESENTATION_RELATIONSHIP('SRR','None',#467,#12);
#12=ADVANCED_BREP_SHAPE_REPRESENTATION('',(#14),#459);
#13=STYLED_ITEM('',(#476),#14);
#14=MANIFOLD_SOLID_BREP('Solido1',#271);
#15=PLANE('',#297);
#16=PLANE('',#298);
#17=PLANE('',#302);
#18=PLANE('',#303);
#19=PLANE('',#304);
#20=PLANE('',#305);
#21=PLANE('',#306);
#22=PLANE('',#307);
#23=PLANE('',#308);
#24=PLANE('',#309);
#25=PLANE('',#310);
#26=PLANE('',#311);
#27=FACE_OUTER_BOUND('',#41,.T.);
#28=FACE_OUTER_BOUND('',#42,.T.);
#29=FACE_OUTER_BOUND('',#43,.T.);
#30=FACE_OUTER_BOUND('',#44,.T.);
#31=FACE_OUTER_BOUND('',#45,.T.);
#32=FACE_OUTER_BOUND('',#46,.T.);
#33=FACE_OUTER_BOUND('',#47,.T.);
#34=FACE_OUTER_BOUND('',#48,.T.);
#35=FACE_OUTER_BOUND('',#49,.T.);
#36=FACE_OUTER_BOUND('',#50,.T.);
#37=FACE_OUTER_BOUND('',#51,.T.);
#38=FACE_OUTER_BOUND('',#52,.T.);
#39=FACE_OUTER_BOUND('',#53,.T.);
#40=FACE_OUTER_BOUND('',#54,.T.);
#41=EDGE_LOOP('',(#183,#184,#185,#186));
#42=EDGE_LOOP('',(#187,#188,#189,#190));
#43=EDGE_LOOP('',(#191,#192,#193,#194,#195,#196,#197,#198,#199,#200,#201,
#202));
#44=EDGE_LOOP('',(#203,#204,#205,#206));
#45=EDGE_LOOP('',(#207,#208,#209,#210));
#46=EDGE_LOOP('',(#211,#212,#213,#214));
#47=EDGE_LOOP('',(#215,#216,#217,#218));
#48=EDGE_LOOP('',(#219,#220,#221,#222));
#49=EDGE_LOOP('',(#223,#224,#225,#226));
#50=EDGE_LOOP('',(#227,#228,#229,#230));
#51=EDGE_LOOP('',(#231,#232,#233,#234));
#52=EDGE_LOOP('',(#235,#236,#237,#238));
#53=EDGE_LOOP('',(#239,#240,#241,#242));
#54=EDGE_LOOP('',(#243,#244,#245,#246,#247,#248,#249,#250,#251,#252,#253,
#254));
#55=LINE('',#388,#87);
#56=LINE('',#391,#88);
#57=LINE('',#394,#89);
#58=LINE('',#396,#90);
#59=LINE('',#397,#91);
#60=LINE('',#400,#92);
#61=LINE('',#402,#93);
#62=LINE('',#404,#94);
#63=LINE('',#406,#95);
#64=LINE('',#408,#96);
#65=LINE('',#410,#97);
#66=LINE('',#412,#98);
#67=LINE('',#414,#99);
#68=LINE('',#416,#100);
#69=LINE('',#421,#101);
#70=LINE('',#424,#102);
#71=LINE('',#425,#103);
#72=LINE('',#429,#104);
#73=LINE('',#430,#105);
#74=LINE('',#431,#106);
#75=LINE('',#434,#107);
#76=LINE('',#435,#108);
#77=LINE('',#438,#109);
#78=LINE('',#439,#110);
#79=LINE('',#442,#111);
#80=LINE('',#443,#112);
#81=LINE('',#445,#113);
#82=LINE('',#448,#114);
#83=LINE('',#449,#115);
#84=LINE('',#452,#116);
#85=LINE('',#453,#117);
#86=LINE('',#455,#118);
#87=VECTOR('',#318,10.);
#88=VECTOR('',#321,10.);
#89=VECTOR('',#324,10.);
#90=VECTOR('',#325,10.);
#91=VECTOR('',#326,10.);
#92=VECTOR('',#329,10.);
#93=VECTOR('',#330,10.);
#94=VECTOR('',#331,10.);
#95=VECTOR('',#332,10.);
#96=VECTOR('',#333,10.);
#97=VECTOR('',#334,10.);
#98=VECTOR('',#335,10.);
#99=VECTOR('',#336,10.);
#100=VECTOR('',#337,10.);
#101=VECTOR('',#344,10.);
#102=VECTOR('',#347,10.);
#103=VECTOR('',#348,10.);
#104=VECTOR('',#351,10.);
#105=VECTOR('',#352,10.);
#106=VECTOR('',#353,10.);
#107=VECTOR('',#356,10.);
#108=VECTOR('',#357,10.);
#109=VECTOR('',#360,10.);
#110=VECTOR('',#361,10.);
#111=VECTOR('',#364,10.);
#112=VECTOR('',#365,10.);
#113=VECTOR('',#368,10.);
#114=VECTOR('',#371,10.);
#115=VECTOR('',#372,10.);
#116=VECTOR('',#375,10.);
#117=VECTOR('',#376,10.);
#118=VECTOR('',#379,10.);
#119=CIRCLE('',#295,1.);
#120=CIRCLE('',#296,1.);
#121=CIRCLE('',#299,1.);
#122=CIRCLE('',#301,1.);
#123=VERTEX_POINT('',#384);
#124=VERTEX_POINT('',#385);
#125=VERTEX_POINT('',#387);
#126=VERTEX_POINT('',#389);
#127=VERTEX_POINT('',#393);
#128=VERTEX_POINT('',#395);
#129=VERTEX_POINT('',#399);
#130=VERTEX_POINT('',#401);
#131=VERTEX_POINT('',#403);
#132=VERTEX_POINT('',#405);
#133=VERTEX_POINT('',#407);
#134=VERTEX_POINT('',#409);
#135=VERTEX_POINT('',#411);
#136=VERTEX_POINT('',#413);
#137=VERTEX_POINT('',#415);
#138=VERTEX_POINT('',#419);
#139=VERTEX_POINT('',#423);
#140=VERTEX_POINT('',#427);
#141=VERTEX_POINT('',#428);
#142=VERTEX_POINT('',#433);
#143=VERTEX_POINT('',#437);
#144=VERTEX_POINT('',#441);
#145=VERTEX_POINT('',#447);
#146=VERTEX_POINT('',#451);
#147=EDGE_CURVE('',#123,#124,#119,.T.);
#148=EDGE_CURVE('',#124,#125,#55,.T.);
#149=EDGE_CURVE('',#125,#126,#120,.T.);
#150=EDGE_CURVE('',#126,#123,#56,.T.);
#151=EDGE_CURVE('',#127,#126,#57,.T.);
#152=EDGE_CURVE('',#128,#127,#58,.T.);
#153=EDGE_CURVE('',#123,#128,#59,.T.);
#154=EDGE_CURVE('',#125,#129,#60,.T.);
#155=EDGE_CURVE('',#129,#130,#61,.T.);
#156=EDGE_CURVE('',#130,#131,#62,.T.);
#157=EDGE_CURVE('',#132,#131,#63,.T.);
#158=EDGE_CURVE('',#132,#133,#64,.T.);
#159=EDGE_CURVE('',#134,#133,#65,.T.);
#160=EDGE_CURVE('',#134,#135,#66,.T.);
#161=EDGE_CURVE('',#135,#136,#67,.T.);
#162=EDGE_CURVE('',#136,#137,#68,.T.);
#163=EDGE_CURVE('',#127,#137,#121,.T.);
#164=EDGE_CURVE('',#138,#128,#122,.T.);
#165=EDGE_CURVE('',#137,#138,#69,.T.);
#166=EDGE_CURVE('',#136,#139,#70,.T.);
#167=EDGE_CURVE('',#138,#139,#71,.T.);
#168=EDGE_CURVE('',#140,#141,#72,.T.);
#169=EDGE_CURVE('',#141,#134,#73,.T.);
#170=EDGE_CURVE('',#133,#140,#74,.T.);
#171=EDGE_CURVE('',#142,#132,#75,.T.);
#172=EDGE_CURVE('',#140,#142,#76,.T.);
#173=EDGE_CURVE('',#143,#142,#77,.T.);
#174=EDGE_CURVE('',#131,#143,#78,.T.);
#175=EDGE_CURVE('',#144,#141,#79,.T.);
#176=EDGE_CURVE('',#135,#144,#80,.T.);
#177=EDGE_CURVE('',#139,#144,#81,.T.);
#178=EDGE_CURVE('',#145,#124,#82,.T.);
#179=EDGE_CURVE('',#129,#145,#83,.T.);
#180=EDGE_CURVE('',#146,#145,#84,.T.);
#181=EDGE_CURVE('',#130,#146,#85,.T.);
#182=EDGE_CURVE('',#143,#146,#86,.T.);
#183=ORIENTED_EDGE('',*,*,#147,.T.);
#184=ORIENTED_EDGE('',*,*,#148,.T.);
#185=ORIENTED_EDGE('',*,*,#149,.T.);
#186=ORIENTED_EDGE('',*,*,#150,.T.);
#187=ORIENTED_EDGE('',*,*,#150,.F.);
#188=ORIENTED_EDGE('',*,*,#151,.F.);
#189=ORIENTED_EDGE('',*,*,#152,.F.);
#190=ORIENTED_EDGE('',*,*,#153,.F.);
#191=ORIENTED_EDGE('',*,*,#149,.F.);
#192=ORIENTED_EDGE('',*,*,#154,.T.);
#193=ORIENTED_EDGE('',*,*,#155,.T.);
#194=ORIENTED_EDGE('',*,*,#156,.T.);
#195=ORIENTED_EDGE('',*,*,#157,.F.);
#196=ORIENTED_EDGE('',*,*,#158,.T.);
#197=ORIENTED_EDGE('',*,*,#159,.F.);
#198=ORIENTED_EDGE('',*,*,#160,.T.);
#199=ORIENTED_EDGE('',*,*,#161,.T.);
#200=ORIENTED_EDGE('',*,*,#162,.T.);
#201=ORIENTED_EDGE('',*,*,#163,.F.);
#202=ORIENTED_EDGE('',*,*,#151,.T.);
#203=ORIENTED_EDGE('',*,*,#164,.T.);
#204=ORIENTED_EDGE('',*,*,#152,.T.);
#205=ORIENTED_EDGE('',*,*,#163,.T.);
#206=ORIENTED_EDGE('',*,*,#165,.T.);
#207=ORIENTED_EDGE('',*,*,#165,.F.);
#208=ORIENTED_EDGE('',*,*,#162,.F.);
#209=ORIENTED_EDGE('',*,*,#166,.T.);
#210=ORIENTED_EDGE('',*,*,#167,.F.);
#211=ORIENTED_EDGE('',*,*,#168,.T.);
#212=ORIENTED_EDGE('',*,*,#169,.T.);
#213=ORIENTED_EDGE('',*,*,#159,.T.);
#214=ORIENTED_EDGE('',*,*,#170,.T.);
#215=ORIENTED_EDGE('',*,*,#170,.F.);
#216=ORIENTED_EDGE('',*,*,#158,.F.);
#217=ORIENTED_EDGE('',*,*,#171,.F.);
#218=ORIENTED_EDGE('',*,*,#172,.F.);
#219=ORIENTED_EDGE('',*,*,#173,.T.);
#220=ORIENTED_EDGE('',*,*,#171,.T.);
#221=ORIENTED_EDGE('',*,*,#157,.T.);
#222=ORIENTED_EDGE('',*,*,#174,.T.);
#223=ORIENTED_EDGE('',*,*,#169,.F.);
#224=ORIENTED_EDGE('',*,*,#175,.F.);
#225=ORIENTED_EDGE('',*,*,#176,.F.);
#226=ORIENTED_EDGE('',*,*,#160,.F.);
#227=ORIENTED_EDGE('',*,*,#161,.F.);
#228=ORIENTED_EDGE('',*,*,#176,.T.);
#229=ORIENTED_EDGE('',*,*,#177,.F.);
#230=ORIENTED_EDGE('',*,*,#166,.F.);
#231=ORIENTED_EDGE('',*,*,#148,.F.);
#232=ORIENTED_EDGE('',*,*,#178,.F.);
#233=ORIENTED_EDGE('',*,*,#179,.F.);
#234=ORIENTED_EDGE('',*,*,#154,.F.);
#235=ORIENTED_EDGE('',*,*,#155,.F.);
#236=ORIENTED_EDGE('',*,*,#179,.T.);
#237=ORIENTED_EDGE('',*,*,#180,.F.);
#238=ORIENTED_EDGE('',*,*,#181,.F.);
#239=ORIENTED_EDGE('',*,*,#174,.F.);
#240=ORIENTED_EDGE('',*,*,#156,.F.);
#241=ORIENTED_EDGE('',*,*,#181,.T.);
#242=ORIENTED_EDGE('',*,*,#182,.F.);
#243=ORIENTED_EDGE('',*,*,#147,.F.);
#244=ORIENTED_EDGE('',*,*,#153,.T.);
#245=ORIENTED_EDGE('',*,*,#164,.F.);
#246=ORIENTED_EDGE('',*,*,#167,.T.);
#247=ORIENTED_EDGE('',*,*,#177,.T.);
#248=ORIENTED_EDGE('',*,*,#175,.T.);
#249=ORIENTED_EDGE('',*,*,#168,.F.);
#250=ORIENTED_EDGE('',*,*,#172,.T.);
#251=ORIENTED_EDGE('',*,*,#173,.F.);
#252=ORIENTED_EDGE('',*,*,#182,.T.);
#253=ORIENTED_EDGE('',*,*,#180,.T.);
#254=ORIENTED_EDGE('',*,*,#178,.T.);
#255=CYLINDRICAL_SURFACE('',#294,1.);
#256=CYLINDRICAL_SURFACE('',#300,1.);
#257=ADVANCED_FACE('',(#27),#255,.T.);
#258=ADVANCED_FACE('',(#28),#15,.T.);
#259=ADVANCED_FACE('',(#29),#16,.F.);
#260=ADVANCED_FACE('',(#30),#256,.T.);
#261=ADVANCED_FACE('',(#31),#17,.T.);
#262=ADVANCED_FACE('',(#32),#18,.T.);
#263=ADVANCED_FACE('',(#33),#19,.T.);
#264=ADVANCED_FACE('',(#34),#20,.T.);
#265=ADVANCED_FACE('',(#35),#21,.T.);
#266=ADVANCED_FACE('',(#36),#22,.T.);
#267=ADVANCED_FACE('',(#37),#23,.T.);
#268=ADVANCED_FACE('',(#38),#24,.T.);
#269=ADVANCED_FACE('',(#39),#25,.T.);
#270=ADVANCED_FACE('',(#40),#26,.T.);
#271=CLOSED_SHELL('',(#257,#258,#259,#260,#261,#262,#263,#264,#265,#266,
#267,#268,#269,#270));
#272=DERIVED_UNIT_ELEMENT(#275,1.);
#273=DERIVED_UNIT_ELEMENT(#462,-3.);
#274=DIMENSIONAL_EXPONENTS(1.,0.,0.,0.,0.,0.,0.);
#275=(
CONVERSION_BASED_UNIT('gram',#277)
MASS_UNIT()
NAMED_UNIT(#274)
);
#276=(
MASS_UNIT()
NAMED_UNIT(*)
SI_UNIT(.KILO.,.GRAM.)
);
#277=MASS_MEASURE_WITH_UNIT(MASS_MEASURE(0.001),#276);
#278=DERIVED_UNIT((#272,#273));
#279=MEASURE_REPRESENTATION_ITEM('density measure',
POSITIVE_RATIO_MEASURE(0.952),#278);
#280=PROPERTY_DEFINITION_REPRESENTATION(#285,#282);
#281=PROPERTY_DEFINITION_REPRESENTATION(#286,#283);
#282=REPRESENTATION('material name',(#284),#459);
#283=REPRESENTATION('density',(#279),#459);
#284=DESCRIPTIVE_REPRESENTATION_ITEM('Polietilene, Alta densit\X\E0',
'Polietilene, Alta densit\X\E0');
#285=PROPERTY_DEFINITION('material property','material name',#469);
#286=PROPERTY_DEFINITION('material property','density of part',#469);
#287=DATE_TIME_ROLE('creation_date');
#288=APPLIED_DATE_AND_TIME_ASSIGNMENT(#289,#287,(#469));
#289=DATE_AND_TIME(#290,#291);
#290=CALENDAR_DATE(2019,2,4);
#291=LOCAL_TIME(0,0,0.,#292);
#292=COORDINATED_UNIVERSAL_TIME_OFFSET(0,0,.BEHIND.);
#293=AXIS2_PLACEMENT_3D('placement',#382,#312,#313);
#294=AXIS2_PLACEMENT_3D('',#383,#314,#315);
#295=AXIS2_PLACEMENT_3D('',#386,#316,#317);
#296=AXIS2_PLACEMENT_3D('',#390,#319,#320);
#297=AXIS2_PLACEMENT_3D('',#392,#322,#323);
#298=AXIS2_PLACEMENT_3D('',#398,#327,#328);
#299=AXIS2_PLACEMENT_3D('',#417,#338,#339);
#300=AXIS2_PLACEMENT_3D('',#418,#340,#341);
#301=AXIS2_PLACEMENT_3D('',#420,#342,#343);
#302=AXIS2_PLACEMENT_3D('',#422,#345,#346);
#303=AXIS2_PLACEMENT_3D('',#426,#349,#350);
#304=AXIS2_PLACEMENT_3D('',#432,#354,#355);
#305=AXIS2_PLACEMENT_3D('',#436,#358,#359);
#306=AXIS2_PLACEMENT_3D('',#440,#362,#363);
#307=AXIS2_PLACEMENT_3D('',#444,#366,#367);
#308=AXIS2_PLACEMENT_3D('',#446,#369,#370);
#309=AXIS2_PLACEMENT_3D('',#450,#373,#374);
#310=AXIS2_PLACEMENT_3D('',#454,#377,#378);
#311=AXIS2_PLACEMENT_3D('',#456,#380,#381);
#312=DIRECTION('axis',(0.,0.,1.));
#313=DIRECTION('refdir',(1.,0.,0.));
#314=DIRECTION('center_axis',(0.,0.,1.));
#315=DIRECTION('ref_axis',(-0.707106781186549,-0.707106781186546,0.));
#316=DIRECTION('center_axis',(0.,0.,-1.));
#317=DIRECTION('ref_axis',(-0.707106781186549,-0.707106781186546,0.));
#318=DIRECTION('',(0.,0.,-1.));
#319=DIRECTION('center_axis',(0.,0.,1.));
#320=DIRECTION('ref_axis',(-0.707106781186549,-0.707106781186546,0.));
#321=DIRECTION('',(0.,0.,1.));
#322=DIRECTION('center_axis',(5.7673923357151E-16,-1.,0.));
#323=DIRECTION('ref_axis',(1.,5.7673923357151E-16,0.));
#324=DIRECTION('',(-1.,-5.7673923357151E-16,0.));
#325=DIRECTION('',(0.,0.,-1.));
#326=DIRECTION('',(1.,5.7673923357151E-16,0.));
#327=DIRECTION('center_axis',(0.,0.,1.));
#328=DIRECTION('ref_axis',(1.,0.,0.));
#329=DIRECTION('',(-4.44089209850063E-16,1.,0.));
#330=DIRECTION('',(-1.,3.89551938464967E-16,0.));
#331=DIRECTION('',(0.,1.,0.));
#332=DIRECTION('',(-0.707106781186548,-0.707106781186547,0.));
#333=DIRECTION('',(1.,0.,0.));
#334=DIRECTION('',(-0.707106781186548,0.707106781186547,0.));
#335=DIRECTION('',(0.,-1.,0.));
#336=DIRECTION('',(-1.,0.,0.));
#337=DIRECTION('',(3.80647894157197E-16,-1.,0.));
#338=DIRECTION('center_axis',(0.,0.,1.));
#339=DIRECTION('ref_axis',(0.707106781186549,-0.707106781186546,0.));
#340=DIRECTION('center_axis',(0.,0.,1.));
#341=DIRECTION('ref_axis',(0.707106781186549,-0.707106781186546,0.));
#342=DIRECTION('center_axis',(0.,0.,-1.));
#343=DIRECTION('ref_axis',(0.707106781186549,-0.707106781186546,0.));
#344=DIRECTION('',(0.,0.,1.));
#345=DIRECTION('center_axis',(1.,3.80647894157197E-16,0.));
#346=DIRECTION('ref_axis',(-3.80647894157197E-16,1.,0.));
#347=DIRECTION('',(0.,0.,1.));
#348=DIRECTION('',(-3.80647894157197E-16,1.,0.));
#349=DIRECTION('center_axis',(0.707106781186547,0.707106781186548,0.));
#350=DIRECTION('ref_axis',(0.,0.,-1.));
#351=DIRECTION('',(0.707106781186548,-0.707106781186547,0.));
#352=DIRECTION('',(0.,0.,-1.));
#353=DIRECTION('',(0.,0.,1.));
#354=DIRECTION('center_axis',(0.,1.,0.));
#355=DIRECTION('ref_axis',(-1.,0.,0.));
#356=DIRECTION('',(0.,0.,-1.));
#357=DIRECTION('',(-1.,0.,0.));
#358=DIRECTION('center_axis',(-0.707106781186547,0.707106781186548,0.));
#359=DIRECTION('ref_axis',(0.,0.,1.));
#360=DIRECTION('',(0.707106781186548,0.707106781186547,0.));
#361=DIRECTION('',(0.,0.,1.));
#362=DIRECTION('center_axis',(1.,0.,0.));
#363=DIRECTION('ref_axis',(0.,1.,0.));
#364=DIRECTION('',(0.,1.,0.));
#365=DIRECTION('',(0.,0.,1.));
#366=DIRECTION('center_axis',(0.,-1.,0.));
#367=DIRECTION('ref_axis',(1.,0.,0.));
#368=DIRECTION('',(1.,0.,0.));
#369=DIRECTION('center_axis',(-1.,-4.44089209850063E-16,0.));
#370=DIRECTION('ref_axis',(4.44089209850063E-16,-1.,0.));
#371=DIRECTION('',(4.44089209850063E-16,-1.,0.));
#372=DIRECTION('',(0.,0.,1.));
#373=DIRECTION('center_axis',(-3.89551938464967E-16,-1.,0.));
#374=DIRECTION('ref_axis',(1.,-3.89551938464967E-16,0.));
#375=DIRECTION('',(1.,-3.89551938464967E-16,0.));
#376=DIRECTION('',(0.,0.,1.));
#377=DIRECTION('center_axis',(-1.,0.,0.));
#378=DIRECTION('ref_axis',(0.,-1.,0.));
#379=DIRECTION('',(0.,-1.,0.));
#380=DIRECTION('center_axis',(0.,0.,1.));
#381=DIRECTION('ref_axis',(1.,0.,0.));
#382=CARTESIAN_POINT('',(0.,0.,0.));
#383=CARTESIAN_POINT('Origin',(3.85000000000001,-21.1,0.));
#384=CARTESIAN_POINT('',(3.85000000000001,-22.1,100.));
#385=CARTESIAN_POINT('',(2.85000000000001,-21.1,100.));
#386=CARTESIAN_POINT('Origin',(3.85000000000001,-21.1,100.));
#387=CARTESIAN_POINT('',(2.85000000000001,-21.1,0.));
#388=CARTESIAN_POINT('',(2.85000000000001,-21.1,0.));
#389=CARTESIAN_POINT('',(3.85000000000001,-22.1,0.));
#390=CARTESIAN_POINT('Origin',(3.85000000000001,-21.1,0.));
#391=CARTESIAN_POINT('',(3.85000000000001,-22.1,0.));
#392=CARTESIAN_POINT('Origin',(2.85000000000001,-22.1,0.));
#393=CARTESIAN_POINT('',(9.55000000000001,-22.1,0.));
#394=CARTESIAN_POINT('',(10.55,-22.1,0.));
#395=CARTESIAN_POINT('',(9.55000000000001,-22.1,100.));
#396=CARTESIAN_POINT('',(9.55000000000001,-22.1,0.));
#397=CARTESIAN_POINT('',(10.55,-22.1,100.));
#398=CARTESIAN_POINT('Origin',(6.7,-9.64507042253521,0.));
#399=CARTESIAN_POINT('',(2.85,-4.6,0.));
#400=CARTESIAN_POINT('',(2.85000000000001,-22.1,0.));
#401=CARTESIAN_POINT('',(0.,-4.6,0.));
#402=CARTESIAN_POINT('',(2.85,-4.6,0.));
#403=CARTESIAN_POINT('',(0.,-0.5,0.));
#404=CARTESIAN_POINT('',(0.,-4.6,0.));
#405=CARTESIAN_POINT('',(0.5,0.,0.));
#406=CARTESIAN_POINT('',(-0.486267605633801,-0.9862676056338,0.));
#407=CARTESIAN_POINT('',(12.9,0.,0.));
#408=CARTESIAN_POINT('',(0.,0.,0.));
#409=CARTESIAN_POINT('',(13.4,-0.5,0.));
#410=CARTESIAN_POINT('',(13.8862676056338,-0.9862676056338,0.));
#411=CARTESIAN_POINT('',(13.4,-4.6,0.));
#412=CARTESIAN_POINT('',(13.4,0.,0.));
#413=CARTESIAN_POINT('',(10.55,-4.6,0.));
#414=CARTESIAN_POINT('',(13.4,-4.6,0.));
#415=CARTESIAN_POINT('',(10.55,-21.1,0.));
#416=CARTESIAN_POINT('',(10.55,-4.6,0.));
#417=CARTESIAN_POINT('Origin',(9.55,-21.1,0.));
#418=CARTESIAN_POINT('Origin',(9.55,-21.1,0.));
#419=CARTESIAN_POINT('',(10.55,-21.1,100.));
#420=CARTESIAN_POINT('Origin',(9.55,-21.1,100.));
#421=CARTESIAN_POINT('',(10.55,-21.1,0.));
#422=CARTESIAN_POINT('Origin',(10.55,-22.1,0.));
#423=CARTESIAN_POINT('',(10.55,-4.6,100.));
#424=CARTESIAN_POINT('',(10.55,-4.6,0.));
#425=CARTESIAN_POINT('',(10.55,-4.6,100.));
#426=CARTESIAN_POINT('Origin',(13.15,-0.25,0.));
#427=CARTESIAN_POINT('',(12.9,0.,100.));
#428=CARTESIAN_POINT('',(13.4,-0.5,100.));
#429=CARTESIAN_POINT('',(13.8862676056338,-0.9862676056338,100.));
#430=CARTESIAN_POINT('',(13.4,-0.5,0.));
#431=CARTESIAN_POINT('',(12.9,0.,0.));
#432=CARTESIAN_POINT('Origin',(13.4,0.,0.));
#433=CARTESIAN_POINT('',(0.5,0.,100.));
#434=CARTESIAN_POINT('',(0.5,0.,0.));
#435=CARTESIAN_POINT('',(0.,0.,100.));
#436=CARTESIAN_POINT('Origin',(0.25,-0.25,0.));
#437=CARTESIAN_POINT('',(0.,-0.5,100.));
#438=CARTESIAN_POINT('',(-0.486267605633801,-0.9862676056338,100.));
#439=CARTESIAN_POINT('',(0.,-0.5,0.));
#440=CARTESIAN_POINT('Origin',(13.4,-4.6,0.));
#441=CARTESIAN_POINT('',(13.4,-4.6,100.));
#442=CARTESIAN_POINT('',(13.4,0.,100.));
#443=CARTESIAN_POINT('',(13.4,-4.6,0.));
#444=CARTESIAN_POINT('Origin',(10.55,-4.6,0.));
#445=CARTESIAN_POINT('',(13.4,-4.6,100.));
#446=CARTESIAN_POINT('Origin',(2.85,-4.6,0.));
#447=CARTESIAN_POINT('',(2.85,-4.6,100.));
#448=CARTESIAN_POINT('',(2.85000000000001,-22.1,100.));
#449=CARTESIAN_POINT('',(2.85,-4.6,0.));
#450=CARTESIAN_POINT('Origin',(0.,-4.6,0.));
#451=CARTESIAN_POINT('',(0.,-4.6,100.));
#452=CARTESIAN_POINT('',(2.85,-4.6,100.));
#453=CARTESIAN_POINT('',(0.,-4.6,0.));
#454=CARTESIAN_POINT('Origin',(0.,0.,0.));
#455=CARTESIAN_POINT('',(0.,-4.6,100.));
#456=CARTESIAN_POINT('Origin',(6.7,-9.64507042253521,100.));
#457=UNCERTAINTY_MEASURE_WITH_UNIT(LENGTH_MEASURE(0.01),#461,
'DISTANCE_ACCURACY_VALUE',
'Maximum model space distance between geometric entities at asserted c
onnectivities');
#458=UNCERTAINTY_MEASURE_WITH_UNIT(LENGTH_MEASURE(0.01),#461,
'DISTANCE_ACCURACY_VALUE',
'Maximum model space distance between geometric entities at asserted c
onnectivities');
#459=(
GEOMETRIC_REPRESENTATION_CONTEXT(3)
GLOBAL_UNCERTAINTY_ASSIGNED_CONTEXT((#457))
GLOBAL_UNIT_ASSIGNED_CONTEXT((#461,#463,#464))
REPRESENTATION_CONTEXT('','3D')
);
#460=(
GEOMETRIC_REPRESENTATION_CONTEXT(3)
GLOBAL_UNCERTAINTY_ASSIGNED_CONTEXT((#458))
GLOBAL_UNIT_ASSIGNED_CONTEXT((#461,#463,#464))
REPRESENTATION_CONTEXT('','3D')
);
#461=(
LENGTH_UNIT()
NAMED_UNIT(*)
SI_UNIT(.MILLI.,.METRE.)
);
#462=(
LENGTH_UNIT()
NAMED_UNIT(*)
SI_UNIT(.CENTI.,.METRE.)
);
#463=(
NAMED_UNIT(*)
PLANE_ANGLE_UNIT()
SI_UNIT($,.RADIAN.)
);
#464=(
NAMED_UNIT(*)
SI_UNIT($,.STERADIAN.)
SOLID_ANGLE_UNIT()
);
#465=SHAPE_DEFINITION_REPRESENTATION(#466,#467);
#466=PRODUCT_DEFINITION_SHAPE('',$,#469);
#467=SHAPE_REPRESENTATION('',(#293),#459);
#468=PRODUCT_DEFINITION_CONTEXT('part definition',#473,'design');
#469=PRODUCT_DEFINITION('APRPZ0000123','APRPZ0000123',#470,#468);
#470=PRODUCT_DEFINITION_FORMATION('A',$,#475);
#471=PRODUCT_RELATED_PRODUCT_CATEGORY('APRPZ0000123','APRPZ0000123',(#475));
#472=APPLICATION_PROTOCOL_DEFINITION('international standard',
'automotive_design',2009,#473);
#473=APPLICATION_CONTEXT(
'Core Data for Automotive Mechanical Design Process');
#474=PRODUCT_CONTEXT('part definition',#473,'mechanical');
#475=PRODUCT('APRPZ0000123','APRPZ0000123',$,(#474));
#476=PRESENTATION_STYLE_ASSIGNMENT((#477));
#477=SURFACE_STYLE_USAGE(.BOTH.,#480);
#478=SURFACE_STYLE_RENDERING_WITH_PROPERTIES($,#484,(#479));
#479=SURFACE_STYLE_TRANSPARENT(0.);
#480=SURFACE_SIDE_STYLE('',(#481,#478));
#481=SURFACE_STYLE_FILL_AREA(#482);
#482=FILL_AREA_STYLE('',(#483));
#483=FILL_AREA_STYLE_COLOUR('',#484);
#484=COLOUR_RGB('',0.184313725490196,0.184313725490196,0.184313725490196);
ENDSEC;
END-ISO-10303-21;
